Coral - I Remember When Chords & Tabs

 

I Remember When Chords & Tabs

Coral Chords & Tabs

Version: 1 Type: Tab 0 ratings
1 star 2 stars 3 stars 4 stars 5 stars
comments

I Remember When Tab

-----------------------------------------------------------------------------
			     I Remember When - The Coral
-----------------------------------------------------------------------------

Tabbed By :barney(furry monkey) 
Tuning:standard
 
 O K here we go
e|-----------------------2-7-------14-------------------------------------|
B|-----3---------8-----3-----14-------------------------------------------|
G|---4---4-----9---9------------15----------------------------------------|
D|-------------------0----------------------------------------------------|
A|-2-------2/7------------------------------------------------------------|
E|------------------------------------------------------------------------|

e|-----------------------2-7------14-|
B|-----3---------8-----3-----14------|
G|---4---4-----9---9------------15---|
D|-------------------0---------------|
A|-2-------2/7-----------------------|
E|-----------------------------------|\
                                       \
                                       /these bits are played at the same time            
e|---2---7---2-----------------------|/
B|---3---8---3---2-------------------|
G|---4---9---2---3-------------------|
D|---------0-----4-------------------|
A|-2---7-------4---------------------|
E|-----------------------------------|

e|-----------------------2-7------14-|
B|-----3---------8-----3-----14------|
G|---4---4-----9---9------------15---|
D|-------------------0---------------|
A|-2-------2/7-----------------------|
E|-----------------------------------|\
                                       \
                                       /and so are these            
e|---2---7---2-----------------------|/
B|---3---8---3---2-------------------|
G|---4---9---2---3-------------------|
D|---------0-----4-------------------|
A|-2---7-------4---------------------|
E|-----------------------------------|

e|-----------------------2-7------14-|
B|-----3---------8-----3-----14------|
G|---4---4-----9---9------------15---|
D|-------------------0---------------|
A|-2-------2/7-----------------------|
E|-----------------------------------|\
                                       \
                                       /so are these           
e|---2---7---2-----------------------|/
B|---3---8---3---2-------------------|
G|---4---9---2---3-------------------|
D|---------0-----4-------------------|
A|-2---7-------4---------------------|
E|-----------------------------------|

e|-----------------------2-7------14-|
B|-----3---------8-----3-----14------|
G|---4---4-----9---9------------15---|
D|-------------------0---------------|
A|-2-------2/7-----------------------|
E|-----------------------------------|\
                                       \
                                       /and finally so are these            
e|---2---7---2-----------------------|/
B|---3---8---3---2-------------------|
G|---4---9---2---3-------------------|
D|---------0-----4-------------------|
A|-2---7-------4---------------------|
E|-----------------------------------|

  chorus
e|------------------------------------------------------------------------|
B|---------3---------------2---------------3--------2---------------------|
G|-----4-----4---4-----2-----2---2-----4-----4---4--2---------------------|
D|---5---5-----5-----4---4-----4-----5---5-----5----4---------------------|
A|------------------------------------------------------------------------|
E|-3---------------2---------------3----------------2---------------------|

e|-----------------2-2-2-2------------------------------------------------|
B|-3-3-3-3-8-8-8-8-3-3-3-3-2-2-2-2----------------------------------------|
G|-4-4-4-4-9-9-9-9-2-2-2-2-3-3-3-3----------------------------------------|
D|-4-4-4-4-9-9-9-9-0-0-0-0-4-4-4-4----------------------------------------|
A|-2-2-2-2-7-7-7-7---------4-4-4-4----------------------------X 
E|------------------------------------------------------------------------|

e|-----------------2-2-2-2-2-2-2-2-----------------2----------|
B|-3-3-3-3-3-3-3-3-2-2-2-2-2-2-2-2-3-3-3-3-3-3-3-3-2----------|
G|-4-4-4-4-4-4-4-4-2-2-2-2-2-2-2-2-4-4-4-4-4-4-4-4-2----------|
D|-5-5-5-5-5-5-5-5-4-4-4-4-4-4-4-4-5-5-5-5-5-5-5-5-4----------|
A|-5-5-5-5-5-5-5-5-4-4-4-4-4-4-4-4-5-5-5-5-5-5-5-5-4----------|
E|-----------------2-2-2-2-2-2-2-2-----------------2----------|
[ Tab from: http://www.guitartabs.cc/tabs/c/coral/i_remember_when_tab.html ]
e|-----------------------2-7------14-|
B|-----3---------8-----3-----14------|
G|---4---4-----9---9------------15---|
D|-------------------0---------------|
A|-2-------2/7-----------------------|
E|-----------------------------------|\
                                       \
                                       /these bits are played at the same time            
e|---2---7---2-----------------------|/
B|---3---8---3---2-------------------|
G|---4---9---2---3-------------------|
D|---------0-----4-------------------|
A|-2---7-------4---------------------|
E|-----------------------------------|

e|-----------------------2-7------14-|
B|-----3---------8-----3-----14------|
G|---4---4-----9---9------------15---|
D|-------------------0---------------|
A|-2-------2/7-----------------------|
E|-----------------------------------|\
                                       \
                                       /and so are these            
e|---2---7---2-----------------------|/
B|---3---8---3---2-------------------|
G|---4---9---2---3-------------------|
D|---------0-----4-------------------|
A|-2---7-------4---------------------|
E|-----------------------------------|

e|-----------------------2-7------14-|
B|-----3---------8-----3-----14------|
G|---4---4-----9---9------------15---|
D|-------------------0---------------|
A|-2-------2/7-----------------------|
E|-----------------------------------|\
                                       \
                                       /and finally so are these            
e|---2---7---2-----------------------|/
B|---3---8---3---2-------------------|
G|---4---9---2---3-------------------|
D|---------0-----4-------------------|
A|-2---7-------4---------------------|
E|-----------------------------------|

  chorus
e|------------------------------------------------------------------------|
B|---------3---------------2---------------3--------2---------------------|
G|-----4-----4---4-----2-----2---2-----4-----4---4--2---------------------|
D|---5---5-----5-----4---4-----4-----5---5-----5----4---------------------|
A|------------------------------------------------------------------------|
E|-3---------------2---------------3----------------2---------------------|

e|-----------------2-2-2-2------------------------------------------------|
B|-3-3-3-3-8-8-8-8-3-3-3-3-2-2-2-2----------------------------------------|
G|-4-4-4-4-9-9-9-9-2-2-2-2-3-3-3-3----------------------------------------|
D|-4-4-4-4-9-9-9-9-0-0-0-0-4-4-4-4----------------------------------------|
A|-2-2-2-2-7-7-7-7---------4-4-4-4----------------------------X 
E|------------------------------------------------------------------------|

e|-----------------2-2-2-2-2-2-2-2-----------------2-2-2-2-2-2-----|
B|-3-3-3-3-3-3-3-3-2-2-2-2-2-2-2-2-3-3-3-3-3-3-3-3-2-2-2-2-2-2-----|
G|-4-4-4-4-4-4-4-4-2-2-2-2-2-2-2-2-4-4-4-4-4-4-4-4-2-2-2-2-2-2-----|
D|-5-5-5-5-5-5-5-5-4-4-4-4-4-4-4-4-5-5-5-5-5-5-5-5-4-4-4-4-4-4-----|
A|-5-5-5-5-5-5-5-5-4-4-4-4-4-4-4-4-5-5-5-5-5-5-5-5-4-4-4-4-4-4-----|
E|-----------------2-2-2-2-2-2-2-2-----------------2-2-2-2-2-2-----|

e|---------------------------------2-2-2-2-2-2-2-2------------------------|
B|-3-3-3-3-3-3-3-3-8-8-8-8-8-8-8-8-3-3-3-3-3-3-3-3-2-2-2-2-2-2-2-2--------|
G|-4-4-4-4-4-4-4-4-9-9-9-9-9-9-9-9-2-2-2-2-2-2-2-2-3-3-3-3-3-3-3-3--------|
D|-4-4-4-4-4-4-4-4-9-9-9-9-9-9-9-9-0-0-0-0-0-0-0-0-4-4-4-4-4-4-4-4--------|
A|-2-2-2-2-2-2-2-2-7-7-7-7-7-7-7-7-----------------4-4-4-4-4-4-4-4--X 2---|
E|------------------------------------------------------------------------|

e|--------------------------------------------------------------|
B|-------12---------10----------12------------------------------|
G|----12----12---11----11----12----12-11-11-11-11-11-11-11-11---|
D|--------------------------------------------------------------|
A|-10----------9----------10----------9--9---7--7---------------|
E|------------------------------------------------10-10-9--9----|

e|-----------------2-2-2-2------------------------------------------------|
B|-3-3-3-3-8-8-8-8-3-3-3-3-2-2-2-2----------------------------------------|
G|-4-4-4-4-9-9-9-9-2-2-2-2-3-3-3-3----------------------------------------|
D|-4-4-4-4-9-9-9-9-0-0-0-0-4-4-4-4----------------------------------------|
A|-2-2-2-2-7-7-7-7---------4-4-4-4----------------------------X 
E|------------------------------------------------------------------------|

e|-2-----------------|
B|-3-----------------|
G|-4-----------------|
D|-4-----------------|
A|-2-----------------|
E|-------------------|
  stop!

| /  slide up

THANK YOU AND GOODNIGHT!!!!!
BARNEY
===============================================================================
Comments