Coral - Eskimo Lament Chords & Tabs

 

Eskimo Lament Chords & Tabs

Coral Chords & Tabs

Version: 1 Type: Tab 0 ratings
1 star 2 stars 3 stars 4 stars 5 stars
comments

Eskimo Lament Tab

   
Song: Eskimo Lament
Band: The Coral


Intro:

    Em                   D            Am               B
E-----0-------0-------3-------3-------0-------0-------7-------7--
B-------0-------0-------2------0--------1-------1-------7-------0
G-0-------0-------2-------2------2--------2-------8-------8------
D---2-------2-----0-0-----0-0------0--------0-------9-------9----
A--------------------------------0--------0----------------------
E-0-------0---------------------------------------7-------7------

Verse 1:

    Em                   D            Am               B
E-----0-------0-------2-------2-------0-------0-------7-------7---
B-------0-------0-------3------0--------1-------1-------7-------0-
G-0-------0-------2-------2------2--------2-------8-------8-------
D---2-------2-----0-0-----0-0------0--------0-------9-------9-----
A--------------------------------0--------0-----------------------
E-0-------0---------------------------------------7-------7-------

  Rain,   rain,   go  away,      leave me on my   own  again    where


    Em                   D           C       D           Em
E-----0-------0-------2-------2-------0-------2-------0-------0---
B-------0-------0-------3-------0-------1-------3-------0-------0-
G-0-------0-------2-------2-------0-------2-------0-------0-------
D---2-------2-----0-0-----0-0-------2-----0-0-------2-------2-----
A---------------------------------3-------------------------------
E-0-------0---------------------------------------0-------0-------
  weary eyes  and hollis tales play heavy on my   mind

Verse 2:

[ Tab from: http://www.guitartabs.cc/tabs/c/coral/eskimo_lament_tab.html ]
    Em                   D            Am               B
E-----0-------0-------2-------2-------0-------0-------7-------7---
B-------0-------0-------3------0--------1-------1-------7-------0-
G-0-------0-------2-------2------2--------2-------8-------8-------
D---2-------2-----0-0-----0-0------0--------0-------9-------9-----
A--------------------------------0--------0-----------------------
E-0-------0---------------------------------------7-------7-------
  Rain,   rain,   dont dismay,   come again   a   better day  where


    Em                   D           C     D      Em
E-----0-------0-------2-------2-------0------------0--
B-------0-------0-------3-------0-------1----------0--
G-0-------0-------2-------2-------0-------2-2------0--
D---2-------2-----0-0-----0-0-------2-----0---0----2--
A---------------------------------3----------------2--
E-0-------0----------------------------------------0--
  weary eyes  and hollis tales I've leaft them all behind


Horn Section 1:

There is picking in this part but i have just figured out the chords

G   Am   D   Em   Am   D



E-------------------------0-
B-3-5-3-5-3---3-----------0-
G-----------4---4-2s4-2-0-0-
D-------------------------2-
A-------------------------2-
E-------------------------0-

Strum these chords:

Em   D

Then:

E-----------0-
B-----------0-
G-2s4-2-0-2-0-
D-----------2-
A-----------2-
E-----------0-

Strum again:

Em   D

E-----------
B-----------
G-2s4-2-0-2-
D-----------
A-----------
E-----------


Verse 3: (Strum the chords for these verses)

Em       D           Am          B
Some say i'm a fool, see me on a beggar's stool

     Em                D               C       D         Em
When all my truths are lied and all my secrets have been told


Verse 4:

Em          D        Am           B
Rain, rain, go away, come again a better day

     Em              D               C       D         Em
When all my lies are gone and all my burdens have been sold


Horn Section 2:

G   Am   D   Em   Am   D



E-----------------------0-
B-3-5-3-5-3---3---------0-
G-----------4---4-2-0-2-0-
D-----------------------2-
A-----------------------2-
E-----------------------0-
Comments