Coral - Dreaming Of You Chords & Tabs

 

Dreaming Of You Chords & Tabs

Coral Chords & Tabs

Version: 2 Type: Tab 0 ratings
1 star 2 stars 3 stars 4 stars 5 stars
comments

Dreaming Of You Tab

e------------------------------------------------------------------
b------------------------------------------------------------------
g---4-5-5s7-5-4--5-5---------------4-5-5s7-5-4h5p4---5-5---5-----7-
d-7-------------7-----5---5---5--7-----------------7-----7---7s9---
a-------------------7---7---7--------------------------------------
E------------------------------------------------------------------
[ Tab from: http://www.guitartabs.cc/tabs/c/coral/dreaming_of_you_tab_ver_2.html ]
e---8-------------------------------------------0---------------------
b----5-8-/5-(8)-/5--------5-----3-----------------1-----1-----------1-
g-5---------------7-5-4-----3h4---3h4-3h4-2-0-------0h2---------------
d-----------------------5---------------------3-----------3-3-2-0-2---
a-----------------------------------------------------------------0---
E---------------------------------------------------------------------

e---------------------0--------------------------------8---7-
b-------3-1-----------------1-----------------1-----1--10--9-
g-----0-----------5-----0h2---0h2p0-----0-0h2----------10--9-
d-0h2-------2-2s5---3---------------3-2---------0h2----10--9-
a------------------------------------------------------8---7-
E------------------------------------------------------------

Sounds perfect except for the odd note. Thanks, Phil
Comments