Coral - Dreaming Of You Chords & Tabs

 

Dreaming Of You Chords & Tabs

Coral Chords & Tabs

Version: 3 Type: Bass Tab 0 ratings
1 star 2 stars 3 stars 4 stars 5 stars
comments

Dreaming Of You Bass Tab

No-one can seem to get ths tab right so Ive decided to write it out for you.

By: Mark Kelly

Standard Tuning EADG

Intro / Verse 1:
G|-------------------|------------------|
D|-7-7---7-7---------|------------------|
A|-----7-----7-------|-8-8-----8--8---8-|
E|-------------------|-----8--8----8----|

1st Chorus:
G|-----------------|----------------|-----------------|
D|-----------------|-5-5---5--5-5--4|-3--3---3--3---3-|
A|--3--3--3--3--5--|-----5----------|-----3------3----|
E|----3------------|----------------|-----------------|

G|-----------------|------------------|------------|
D|-7-7----7-7------|------------------|--7-77------|
A|-----7------7----|-8--8----8--8---8-|------7-8-7-|
E|-----------------|-----8--8----8----|------------|

Verse 2:
G|-------------------|------------------|
D|-7-7---7-7---------|------------------|
A|-----7-----7-------|-8-8-----8--8---8-|
E|-------------------|-----8--8----8----|

2nd Chorus:

G|-----------------|----------------|-----------------|
D|-----------------|-5-5---5--5-5--4|-3--3---3--3---3-|
A|--3--3--3--3--5--|-----5----------|-----3------3----|
E|----3------------|----------------|-----------------|
[ Tab from: http://www.guitartabs.cc/tabs/c/coral/dreaming_of_you_btab_ver_3.html ]
G|-----------------|------------------|-------------------|
D|-7-7----7-7------|------------------|--7-77-------------|
A|-----7------7----|-8--8----8--8---8-|------7-87-87-87-87|
E|-----------------|-----8--8----8----|-------------------|

Solo:
G|-------------------|------------------|
D|-7-7---7-7---------|------------------| 
A|-----7-----7-------|-8-8-----8--8---8-|
E|-------------------|-----8--8----8----|  x 2

G|-----------------|----------------|-----------------|
D|-----------------|-5-5---5--5-5--4|-3--3---3--3---3-|
A|--3--3--3--3--5--|-----5----------|-----3------3----|
E|----3------------|----------------|-----------------|

G|-----------------|------------------|------------|
D|-7-7----7-7------|------------------|--7-77------|
A|-----7------7----|-8--8----8--8---8-|------7-8-7-|
E|-----------------|-----8--8----8----|------------|

Ending:
G|-------------------|------------------|
D|-7-7---7-7---------|------------------| 
A|-----7-----7-------|-8-8-----8--8---8-|
E|-------------------|-----8--8----8----|  x 2

G|-----------------|----------------|-----------------|
D|-----------------|-5-5---5--5-5--4|-3--3---3--3---3-|
A|--3--3--3--3--5--|-----5----------|-----3------3----|
E|----3------------|----------------|-----------------|

G|-----------------|------------------|------------|
D|-7-7----7-7------|------------------|--7-77------|
A|-----7------7----|-8--8----8--8---8-|------7-8-7-|
E|-----------------|-----8--8----8----|------------|
Comments