Copeland - When Paula Sparks Chords & Tabs

 

When Paula Sparks Chords & Tabs

Copeland Chords & Tabs

Version: 1 Type: Bass Tab 0 ratings
1 star 2 stars 3 stars 4 stars 5 stars
comments

When Paula Sparks Bass Tab

By Copeland,on militia group records
Record--beneath the medicine tree

verse:
      G ------------------------------|
      D ------------------------------|
      A ----022--------2-----------00-|
      E ----------------33--------3---| repeat 6x


chorus:
      G ------------------------------------------------------------|
      D ------------------------------------------------------------|
      A 5--55-----------3--30--0------------------------------------|
      E --------3--33-----------3--33-------------------------------|


verse 2: same as verse one,except last few measures
[ Tab from: http://www.guitartabs.cc/tabs/c/copeland/when_paula_sparks_btab.html ]
      G ------------------------------------------------------------|
      D ------------------------------------------------------------|
      A ----022-22-22-22--------------2-----------22----------------|
      E -------------------------------33--------3------------------|


chorus 2: Distortion baby!

      G ------------------------------------------------------------|
      D ------------------------------------------------------------|
      A 5-5-5-5-5-5-5-----------------2-2-2-2-0-0-0-----------------|
      E --------------3-3-3-3-3-3-3-3---------------3-3-3-3-3-3-3-3-|
.


bridge:

      G ------------------------------------------------------------|
      D ------------------------------------------------------------|
      A 2-2-2-2-2-2-2-----------------5-5-5-5-5-5-5-0-0-0-0-0-0-0-0-|
      E --------------3-3-3-3-3-3-3-3-------------------------------|
Comments