Copeland - Testing The Strong Ones Chords & Tabs

 

Testing The Strong Ones Chords & Tabs

Copeland Chords & Tabs

Version: 2 Type: Tab 0 ratings
1 star 2 stars 3 stars 4 stars 5 stars
comments

Testing The Strong Ones Tab

   
-------------------------------------------------------------------------------
			     Testing the Srong Ones - Copeland
-------------------------------------------------------------------------------
Tabbed by: jordan lontine
Email: jordanlontine@hotmail.com

Heres some of the soloing or lead parts:

Tuning: Standard

Intro and Outro solo:

e|-------------------12--------------------------------------------|
B|-12-14p12-12p14-10---10-(x4)-------------------------------------|
G|-----------------------------------------------------------------|
D|-----------------------------------------------------------------|
A|-----------------------------------------------------------------|
E|-----------------------------------------------------------------|
[ Tab from: http://www.guitartabs.cc/tabs/c/copeland/testing_the_strong_ones_tab_ver_2.html ]
This part comes in every other riff in the veres, outro and intro.
e|-----------------9-7---------------------------------------------|
B|-------10~-----------10~-----------------------------------------|
G|-6/7/9----6/7/9--------------------------------------------------|
D|-----------------------------------------------------------------|
A|-----------------------------------------------------------------|
E|-----------------------------------------------------------------|

BRIDGE SOLO

e|-------------------------------12------12------12----------------|
B|-----------------9--------9h10----9h10----9h10----10-------------|
G|-------9-7p6-7-9---9---------------------------------------------|
D|-6h7-9---------------(x4)----------------------------------------|
A|-----------------------------------------------------------------|
E|-----------------------------------------------------------------|

On the next go around, the second riff goes:
e|-----------------------------------------------------------------|
B|-----------------------------------------------------------------|
G|-------9-7-6-7-6-------------------------------------------------|
D|-6h7-9-----------9-----------------------------------------------|
A|-----------------------------------------------------------------|
E|-----------------------------------------------------------------|

| /  slide up
| \  slide down
| h  hammer-on
| p  pull-off
| ~  vibrato
| +  harmonic
| x  Mute note
===============================================================================
Comments