Copeland - No One Really Wins Chords & Tabs

 

No One Really Wins Chords & Tabs

Copeland Chords & Tabs

Version: 1 Type: Tab 0 ratings
1 star 2 stars 3 stars 4 stars 5 stars
comments

No One Really Wins Tab

   
Transcribed by Damn the Destroyer

 Words and Music by Copeland
Arranged by Copeland
 

Gtr I (E A D G B E) - 'Untitled'
Gtr II (E A D G B E) - 'Untitled'
Gtr III (E A D G B E) - 'Untitled'


 Intro
  Q=130
  N.C.
 4/4
  Gtr I
  H.      Q    E E E E E E E E   E  E  E  E  E  E  E E
|------------|-----------------|-----------------------|
|------------|-----------------|-----------------------|
|------------|-----------------|-----------------------|
|------------|-----------------|-----------------------|
|------------|---------------9-|-9-10-10-12-12-12-12-0-|
|---------2S=|=7-7-7-7-7-7-7---|-----------------------|
|
| Gtr II
| W            W                 W
|------------|-----------------|-----------------------|
|------------|-----------------|-----------------------|
|------------|-----------------|-----------------------|
|------------|-----------------|-----------------------|
|------------|-----------------|-----------------------|
|------------|-----------------|-----------------------|


  E E E E   E  E E E      E    E  E  E  E  E  E  E
|--------------------|------------------------------|
|--------------------|------------------------------|
|--------------------|------------------------------|
|--------------------|------------------------------|
|------------------9-|----9---10-10-12-12-12-12-12--|
|-7-7-7-7---7--7-7---|------------------------------|
|
|           <
| H         H            +W
|----------<7>-------|--(<7>)-----------------------|
|---------<12>-------|-(<12>)-----------------------|
|--------------------|------------------------------|
|--------------------|------------------------------|
|--------------------|------------------------------|
|--------------------|------------------------------|


  G5               B5      A5        B5A5
  Q   E.   S E E E E    E   Q   E  E E  E E
|--------------------|----------------------|
|--------------------|----------------------|
|--------------------|----------------------|
|-5---5----5-5-5---9-|------7---7--7-9--7---|
|-5---5----5-5-5---9-|------7---7--7-9--7-0-|
|-3---3----3-3-3---7-|------5---5--5-7--5-0-|
|
| E E E  E   E E E E   +E   Q   E  E E  E E
|--------5---------7-|-(7)-----------7----0-|
|---7--------7---7---|-----10--10-10---10---|
|-4---4--------4-----|----------------------|
|--------------------|----------------------|
|--------------------|----------------------|
|--------------------|----------------------|


  G5               B5      A5        B5A5
  Q   E.   S E E E E    E   Q   E  E E  E E
|--------------------|-----------------------|
|--------------------|-----------------------|
|--------------------|-----------------------|
|-5---5----5-5-5---9-|------7---7--7-9--7----|
|-5---5----5-5-5---9-|------7---7--7-9--7-0--|
|-3---3----3-3-3---7-|------5---5--5-7--5-0--|
|
| E E E  E   E E E E   +E   Q   E  E E  E E
|--------5---------7-|-(7)-----------7----0--|
|---7--------7---7---|-----10--10-10---10----|
|-4---4--------4-----|-----------------------|
|--------------------|-----------------------|
|--------------------|-----------------------|
|--------------------|-----------------------|


 1st Verse
  N.C.
  E E E E E E E E   E  E  E  E  E  E  E E
|-----------------|-----------------------|
|-----------------|-----------------------|
|-----------------|-----------------------|
|-----------------|-----------------------|
|---------------9-|-9-10-10-12-12-12-12-0-|
|-7-7-7-7-7-7-7---|-----------------------|
|
| W                 W
|-----------------|-----------------------|
|-----------------|-----------------------|
|-----------------|-----------------------|
|-----------------|-----------------------|
|-----------------|-----------------------|
|-----------------|-----------------------|


  E E E E   E  E E E      E    E  E  E  E  E  E  E
|--------------------|------------------------------|
|--------------------|------------------------------|
|--------------------|------------------------------|
|--------------------|------------------------------|
|------------------9-|----9---10-10-12-12-12-12-12--|
|-7-7-7-7---7--7-7---|------------------------------|
|
|           <
| H         H            +W
|----------<7>-------|--(<7>)-----------------------|
|---------<12>-------|-(<12>)-----------------------|
|--------------------|------------------------------|
|--------------------|------------------------------|
|--------------------|------------------------------|
|--------------------|------------------------------|


  G5               B5      A5        B5A5
  Q   E.   S E E E E    E   Q   E  E E  E E
|--------------------|----------------------|
|--------------------|----------------------|
|--------------------|----------------------|
|-5---5----5-5-5---9-|------7---7--7-9--7---|
|-5---5----5-5-5---9-|------7---7--7-9--7-0-|
|-3---3----3-3-3---7-|------5---5--5-7--5-0-|
|
| E E E  E   E E E E   +E   Q   E  E E  E E
|--------5---------7-|-(7)-----------7----0-|
|---7--------7---7---|-----10--10-10---10---|
|-4---4--------4-----|----------------------|
|--------------------|----------------------|
|--------------------|----------------------|
|--------------------|----------------------|


  G5               B5      A5        B5A5
  Q   E.   S E E E E    E   Q   E  E E  E E
|--------------------|-----------------------|
|--------------------|-----------------------|
|--------------------|-----------------------|
|-5---5----5-5-5---9-|------7---7--7-9--7----|
|-5---5----5-5-5---9-|------7---7--7-9--7-0--|
|-3---3----3-3-3---7-|------5---5--5-7--5-0--|
|
| E E E  E   E E E E   +E   Q   E  E E  E E
|--------5---------7-|-(7)-----------7----0--|
|---7--------7---7---|-----10--10-10---10----|
|-4---4--------4-----|-----------------------|
|--------------------|-----------------------|
|--------------------|-----------------------|
|--------------------|-----------------------|


  N.C.
  E E E E E E E E   E  E  E  E  E  E  E E
|-----------------|-----------------------|
|-----------------|-----------------------|
|-----------------|-----------------------|
|-----------------|-----------------------|
|---------------9-|-9-10-10-12-12-12-12-0-|
|-7-7-7-7-7-7-7---|-----------------------|
|
| W                 W
|-----------------|-----------------------|
|-----------------|-----------------------|
|-----------------|-----------------------|
|-----------------|-----------------------|
|-----------------|-----------------------|
|-----------------|-----------------------|


  E E E E E E E E   E  E  E  E  E  E  E  E
|-----------------|-------------------------|
|-----------------|-------------------------|
|-----------------|-------------------------|
|-----------------|-------------------------|
|---------------9-|-9-10-10-12-12-12-12-12--|
|-7-7-7-7-7-7-7---|-------------------------|
|
| W                 W
|-----------------|-------------------------|
|-----------------|-------------------------|
|-----------------|-------------------------|
|-----------------|-------------------------|
|-----------------|-------------------------|
|-----------------|-------------------------|


  G5               B5      A5        B5A5
  Q   E.   S E E E E    E   Q   E  E E  E E
|--------------------|----------------------|
|--------------------|----------------------|
|--------------------|----------------------|
|-5---5----5-5-5---9-|------7---7--7-9--7---|
|-5---5----5-5-5---9-|------7---7--7-9--7-0-|
|-3---3----3-3-3---7-|------5---5--5-7--5-0-|
|
| E E E  E   E E E E   +E   Q   E  E E  E E
|--------5---------7-|-(7)-----------7----0-|
|---7--------7---7---|-----10--10-10---10---|
|-4---4--------4-----|----------------------|
|--------------------|----------------------|
|--------------------|----------------------|
|--------------------|----------------------|


  G5               B5      A5        B5A5
  Q   E.   S E E E E    E   Q   E  E E  E E
|--------------------|-----------------------|
|--------------------|-----------------------|
|--------------------|-----------------------|
|-5---5----5-5-5---9-|------7---7--7-9--7----|
|-5---5----5-5-5---9-|------7---7--7-9--7-0--|
|-3---3----3-3-3---7-|------5---5--5-7--5-0--|
|
| E E E  E   E E E E   +E   Q   E  E E  E E
|--------5---------7-|-(7)-----------7----0--|
|---7--------7---7---|-----10--10-10---10----|
|-4---4--------4-----|-----------------------|
|--------------------|-----------------------|
|--------------------|-----------------------|
|--------------------|-----------------------|


 Chorus
  N.C.
  Gtrs I, II
  Wx9
|--------|
|--------|
|--------|
|--------|
|--------|
|--------|


 2nd Verse
  N.C.
  Gtr I
  E E E E E E E E   E  E  E  E  E  E  E E
|-----------------|-----------------------|
|-----------------|-----------------------|
|-----------------|-----------------------|
|-----------------|-----------------------|
|---------------9-|-9-10-10-12-12-12-12-0-|
|-7-7-7-7-7-7-7---|-----------------------|
|
| Gtr II
| W                 W
|-----------------|-----------------------|
|-----------------|-----------------------|
|-----------------|-----------------------|
|-----------------|-----------------------|
|-----------------|-----------------------|
|-----------------|-----------------------|


  E E E E   E  E E E      E    E  E  E  E  E  E  E
|--------------------|------------------------------|
|--------------------|------------------------------|
|--------------------|------------------------------|
|--------------------|------------------------------|
|------------------9-|----9---10-10-12-12-12-12-12--|
|-7-7-7-7---7--7-7---|------------------------------|
|
|           <
| H         H            +W
|----------<7>-------|--(<7>)-----------------------|
|---------<12>-------|-(<12>)-----------------------|
|--------------------|------------------------------|
|--------------------|------------------------------|
|--------------------|------------------------------|
|--------------------|------------------------------|


  G5               B5      A5        B5A5
  Q   E.   S E E E E    E   Q   E  E E  E E
|--------------------|----------------------|
|--------------------|----------------------|
|--------------------|----------------------|
|-5---5----5-5-5---9-|------7---7--7-9--7---|
|-5---5----5-5-5---9-|------7---7--7-9--7-0-|
|-3---3----3-3-3---7-|------5---5--5-7--5-0-|
|
| E E E  E   E E E E   +E   Q   E  E E  E E
|--------5---------7-|-(7)-----------7----0-|
|---7--------7---7---|-----10--10-10---10---|
|-4---4--------4-----|----------------------|
|--------------------|----------------------|
|--------------------|----------------------|
|--------------------|----------------------|


  G5               B5      A5        B5A5
  Q   E.   S E E E E    E   Q   E  E E  E E
|--------------------|-----------------------|
|--------------------|-----------------------|
|--------------------|-----------------------|
|-5---5----5-5-5---9-|------7---7--7-9--7----|
|-5---5----5-5-5---9-|------7---7--7-9--7-0--|
|-3---3----3-3-3---7-|------5---5--5-7--5-0--|
|
| E E E  E   E E E E   +E   Q   E  E E  E E
|--------5---------7-|-(7)-----------7----0--|
|---7--------7---7---|-----10--10-10---10----|
|-4---4--------4-----|-----------------------|
|--------------------|-----------------------|
|--------------------|-----------------------|
|--------------------|-----------------------|


  N.C.
  E E E E E E E E   E  E  E  E  E  E  E E
|-----------------|-----------------------|
|-----------------|-----------------------|
|-----------------|-----------------------|
|-----------------|-----------------------|
|---------------9-|-9-10-10-12-12-12-12-0-|
|-7-7-7-7-7-7-7---|-----------------------|
|
| W                 W
|-----------------|-----------------------|
|-----------------|-----------------------|
|-----------------|-----------------------|
|-----------------|-----------------------|
|-----------------|-----------------------|
|-----------------|-----------------------|


  E E E E   E  E E E      E    E  E  E  E  E  E  E
|--------------------|------------------------------|
|--------------------|------------------------------|
|--------------------|------------------------------|
|--------------------|------------------------------|
|------------------9-|----9---10-10-12-12-12-12-12--|
|-7-7-7-7---7--7-7---|------------------------------|
|
|           <
| H         H            +W
|----------<7>-------|--(<7>)-----------------------|
|---------<12>-------|-(<12>)-----------------------|
|--------------------|------------------------------|
|--------------------|------------------------------|
|--------------------|------------------------------|
|--------------------|------------------------------|


  G5               B5      A5        B5A5
  Q   E.   S E E E E    E   Q   E  E E  E E
|--------------------|----------------------|
|--------------------|----------------------|
|--------------------|----------------------|
|-5---5----5-5-5---9-|------7---7--7-9--7---|
|-5---5----5-5-5---9-|------7---7--7-9--7-0-|
|-3---3----3-3-3---7-|------5---5--5-7--5-0-|
|
| E E E  E   E E E E   +E   Q   E  E E  E E
|--------5---------7-|-(7)-----------7----0-|
|---7--------7---7---|-----10--10-10---10---|
|-4---4--------4-----|----------------------|
|--------------------|----------------------|
|--------------------|----------------------|
|--------------------|----------------------|


  G5               B5      A5        B5A5
  Q   E.   S E E E E    E   Q   E  E E  E E
|--------------------|-----------------------|
|--------------------|-----------------------|
|--------------------|-----------------------|
|-5---5----5-5-5---9-|------7---7--7-9--7----|
|-5---5----5-5-5---9-|------7---7--7-9--7-0--|
|-3---3----3-3-3---7-|------5---5--5-7--5-0--|
|
| E E E  E   E E E E   +E   Q   E  E E  E E
|--------5---------7-|-(7)-----------7----0--|
|---7--------7---7---|-----10--10-10---10----|
|-4---4--------4-----|-----------------------|
|--------------------|-----------------------|
|--------------------|-----------------------|
|--------------------|-----------------------|


 Chorus
  G                      A
  Gtr III
   E E  E E  E E  E  E    E E  E E E E E E
|--3-3--3-3--3-3--3--3-|--0-0--0-0-0-0-0-0-|
|--3-3--3-3--3-3--3--3-|--2-2--2-2-2-2-2-2-|
|--0-0--0-0--0-0--0--0-|--2-2--2-2-2-2-2-2-|
|--0-0--0-0--0-0--0--0-|--2-2--2-2-2-2-2-2-|
|----------------------|--0-0--0-0-0-0-0-0-|
|--3-3--3-3--3-3--3--3-|-------------------|
|
| Gtrs I, II
|  E E  E E  E E  E  E    E E  E Q   E E E
|-10---10---10---10-10-|-10---10-----9---9-|
|----------------------|-------------------|
|--7----7----7----7--7-|--7----7-----6---6-|
|----------------------|-------------------|
|----------------------|-------------------|
|----------------------|-------------------|


  Bm                     D
   E E  E E  E E  E  E    E E  E E E E E E
|--2-2--2-2--2-2--2--2-|--2-2--2-2-2-2-2-2--|
|--3-3--3-3--3-3--3--3-|--3-3--3-3-3-3-3-3--|
|--4-4--4-4--4-4--4--4-|--2-2--2-2-2-2-2-2--|
|--4-4--4-4--4-4--4--4-|--0-0--0-0-0-0-0-0--|
|--2-2--2-2--2-2--2--2-|--------------------|
|----------------------|--------------------|
|
|  E E  E E  E E  E  E    E E  E Q   E E E
|-10---10---10---10-10-|-10---10-----9---9--|
|----------------------|--------------------|
|--7----7----7----7--7-|--7----7-----6---6--|
|----------------------|--------------------|
|----------------------|--------------------|
|----------------------|--------------------|


  G                      A
   E E  E E  E E  E  E    E E  E E E E E E
|--3-3--3-3--3-3--3--3-|--0-0--0-0-0-0-0-0-|
|--3-3--3-3--3-3--3--3-|--2-2--2-2-2-2-2-2-|
|--0-0--0-0--0-0--0--0-|--2-2--2-2-2-2-2-2-|
|--0-0--0-0--0-0--0--0-|--2-2--2-2-2-2-2-2-|
|----------------------|--0-0--0-0-0-0-0-0-|
|--3-3--3-3--3-3--3--3-|-------------------|
|
|  E E  E E  E E  E  E    E E  E Q   E E E
|-10---10---10---10-10-|-10---10-----9---9-|
|----------------------|-------------------|
|--7----7----7----7--7-|--7----7-----6---6-|
|----------------------|-------------------|
|----------------------|-------------------|
|----------------------|-------------------|


  Bm                     D
   E E  E E  E E  E  E    E E  E E E  E E  E
|--2-2--2-2--2-2--2--2-|--2-2--2-2-2--2-2--2--|
|--3-3--3-3--3-3--3--3-|--3-3--3-3-3--3-3--3--|
|--4-4--4-4--4-4--4--4-|--2-2--2-2-2--2-2--2--|
|--4-4--4-4--4-4--4--4-|--0-0--0-0-0--0-0--0--|
|--2-2--2-2--2-2--2--2-|----------------------|
|----------------------|----------------------|
|
|  E E  E E  E E  E  E    E E  E Q    E E  E
|-10---10---10---10-10-|-10---10-----12---12--|
|----------------------|----------------------|
|--7----7----7----7--7-|--7----7------9----9--|
|----------------------|----------------------|
|----------------------|----------------------|
|----------------------|----------------------|

[ Tab from: http://www.guitartabs.cc/tabs/c/copeland/no_one_really_wins_tab.html ]
  G                      A
  Gtr III
   E E  E E  E E  E  E    E E  E E E  E E  E
|--3-3--3-3--3-3--3--3-|--0-0--0-0-0--0-0--0-|
|--3-3--3-3--3-3--3--3-|--2-2--2-2-2--2-2--2-|
|--0-0--0-0--0-0--0--0-|--2-2--2-2-2--2-2--2-|
|--0-0--0-0--0-0--0--0-|--2-2--2-2-2--2-2--2-|
|----------------------|--0-0--0-0-0--0-0--0-|
|--3-3--3-3--3-3--3--3-|---------------------|
|
| Gtr II
|  E E  E E  E E  E  E    E E  E Q    E E  E
|-10---10---10---10-10-|-10---10------9----9-|
|----------------------|---------------------|
|--7----7----7----7--7-|--7----7------6----6-|
|----------------------|---------------------|
|----------------------|---------------------|
|----------------------|---------------------|
|
| Gtr I
|  E E  E E  E E  E  E    E E  E Q    E E  E
|-14---14---14---14-14-|-14---14-----12---12-|
|----------------------|---------------------|
|-11---11---11---11-11-|-11---11------9----9-|
|----------------------|---------------------|
|----------------------|---------------------|
|----------------------|---------------------|


  Bm                     D
   E E  E E  E E  E  E    E E  E E E  E E  E
|--2-2--2-2--2-2--2--2-|--2-2--2-2-2--2-2--2--|
|--3-3--3-3--3-3--3--3-|--3-3--3-3-3--3-3--3--|
|--4-4--4-4--4-4--4--4-|--2-2--2-2-2--2-2--2--|
|--4-4--4-4--4-4--4--4-|--0-0--0-0-0--0-0--0--|
|--2-2--2-2--2-2--2--2-|----------------------|
|----------------------|----------------------|
|
|  E E  E E  E E  E  E    E E  E Q    E E  E
|-10---10---10---10-10-|-10---10------9----9--|
|----------------------|----------------------|
|--7----7----7----7--7-|--7----7------6----6--|
|----------------------|----------------------|
|----------------------|----------------------|
|----------------------|----------------------|
|
|  E E  E E  E E  E  E    E E  E Q    E E  E
|-14---14---14---14-14-|-17---14-----12---12--|
|----------------------|----------------------|
|-11---11---11---11-11-|-14---11------9----9--|
|----------------------|----------------------|
|----------------------|----------------------|
|----------------------|----------------------|


  G                      A
  Gtr III
   E E  E E  E E  E  E    E E  E E E  E E  E
|--3-3--3-3--3-3--3--3-|--0-0--0-0-0--0-0--0-|
|--3-3--3-3--3-3--3--3-|--2-2--2-2-2--2-2--2-|
|--0-0--0-0--0-0--0--0-|--2-2--2-2-2--2-2--2-|
|--0-0--0-0--0-0--0--0-|--2-2--2-2-2--2-2--2-|
|----------------------|--0-0--0-0-0--0-0--0-|
|--3-3--3-3--3-3--3--3-|---------------------|
|
| Gtr II
|  E E  E E  E E  E  E    E E  E Q    E E  E
|-10---10---10---10-10-|-10---10------9----9-|
|----------------------|---------------------|
|--7----7----7----7--7-|--7----7------6----6-|
|----------------------|---------------------|
|----------------------|---------------------|
|----------------------|---------------------|
|
| Gtr I
|  E E  E E  E E  E  E    E E  E Q    E E  E
|-14---14---14---17-15-|-14---14-----12---12-|
|----------------------|---------------------|
|-11---11---11---14-12-|-11---11------9----9-|
|----------------------|---------------------|
|----------------------|---------------------|
|----------------------|---------------------|


  Bm                     D
   E E  E E  E E  E  E    E E H.
|--2-2--2-2--2-2--2--2-|--2---------|
|--3-3--3-3--3-3--3--3-|--3---------|
|--4-4--4-4--4-4--4--4-|--2---------|
|--4-4--4-4--4-4--4--4-|--0---------|
|--2-2--2-2--2-2--2--2-|------------|
|----------------------|------------|
|
|  E E  E E  E E  E  E    E E H.
|-10---10---10---10-10-|-10---------|
|----------------------|------------|
|--7----7----7----7--7-|--7---------|
|----------------------|------------|
|----------------------|------------|
|----------------------|------------|
|
|  E E  E E  E E  E  E    E E H.
|-14---14---14---14-14-|-17---------|
|----------------------|------------|
|-11---11---11---11-11-|-14---------|
|----------------------|------------|
|----------------------|------------|
|----------------------|------------|


 Guitar Solo
  G5                A5                B5                 D5
  Gtr I
  E E E E E E E E   E E E E E E E E   E E E E  E E E E   E E  E E E E E E
|-----------------|-----------------|------------------|-------------------|
|-----------------|-----------------|------------------|-------------------|
|-----------------|-----------------|------------------|-7-7--7-7-7-7-7-7--|
|-5-5-5-5-5-5-5-5-|-7-7-7-7-7-7-7-7-|-9-9-9-9--9-9-9-9-|-7-7--7-7-7-7-7-7--|
|-5-5-5-5-5-5-5-5-|-7-7-7-7-7-7-7-7-|-9-9-9-9--9-9-9-9-|-5-5--5-5-5-5-5-5--|
|-3-3-3-3-3-3-3-3-|-5-5-5-5-5-5-5-5-|-7-7-7-7--7-7-7-7-|-------------------|
|
| Gtr II
| ~~~~~~~~~~~~~~~~~~~~~~~~~~~~~~~~~~~~~~~~~~~~~~~          ~~
| H       H         H       H         H        H         E Q.     E E E E
|-----------------|-----------------|------------------|-------------------|
|-----------------|-----------------|------------------|-------------------|
|-----------------|-----------------|------------------|-------------------|
|-----------------|---------9-------|-7----------------|-------------------|
|---------4-------|-5---------------|---------10-------|-9p7------9p7-5s7--|
|-7---------------|-----------------|------------------|-------------------|


  G5                A5
  E E E E E E E E    E  E E E E E E E
|-----------------|-------------------|
|-----------------|-------------------|
|-----------------|-------------------|
|-5-5-5-5-5-5-5-5-|--7--7-7-7-7-7-7-7-|
|-5-5-5-5-5-5-5-5-|--7--7-7-7-7-7-7-7-|
|-3-3-3-3-3-3-3-3-|--5--5-5-5-5-5-5-5-|
|
| Q   Q   Q   Q     +H        E E E E
|-----------------|-------------------|
|-----------------|-------------------|
|-----------------|-------------------|
|-----------------|-------------------|
|-7---9-----------|-----------9p7-5s7-|
|---------7---5---|-(5)---------------|


  B5                      D5
  E  E E E      E E E E     E  E E E E E E E
|-----------------------|---------------------|
|-----------------------|---------------------|
|-----------------------|---7--7-7-7-7-7-7-7--|
|-9--9-9-9------9-9-9-9-|---7--7-7-7-7-7-7-7--|
|-9--9-9-9------9-9-9-9-|---5--5-5-5-5-5-5-5--|
|-7--7-7-7------7-7-7-7-|---------------------|
|
|        |-3-|
| Q.     S S S  H          +H.           Q
|-----------------------|---------------------|
|-----------------------|---------------------|
|-----------------------|---------------------|
|-----------------------|---------------------|
|-7------7-9-7----------|---------------------|
|--------------10-------|-(10)-----------9----|


  G5                A5                B5                 D5
  E E E E E E E E   E E E E E E E E   E E E E  E E E E    E E E E  E E E E
|-----------------|-----------------|------------------|--------------------|
|-----------------|-----------------|------------------|--------------------|
|-----------------|-----------------|------------------|--7-7-7-7--7-7-7-7--|
|-5-5-5-5-5-5-5-5-|-7-7-7-7-7-7-7-7-|-9-9-9-9--9-9-9-9-|--7-7-7-7--7-7-7-7--|
|-5-5-5-5-5-5-5-5-|-7-7-7-7-7-7-7-7-|-9-9-9-9--9-9-9-9-|--5-5-5-5--5-5-5-5--|
|-3-3-3-3-3-3-3-3-|-5-5-5-5-5-5-5-5-|-7-7-7-7--7-7-7-7-|--------------------|
|
| ~~~~~~~~~~~~~~~~~~~~~~~~~~~~~~~~~~~~~~~~~~~~~~~~~~~~~~~~~~
| H       H         H       H         H        H          H        E E E E
|-----------------|-----------------|------------------|--------------------|
|-----------------|-----------------|------------------|--------------------|
|-----------------|-----------------|----------9-------|-11-------11p9-7s9--|
|-----------------|---------9-------|-7----------------|--------------------|
|---------4-------|-5---------------|---------10-------|--9-----------------|
|-7---------------|-----------------|------------------|--------------------|


  G5                  A5
  E E  E E E E  E E    E  E E E  E E E E
|-------------------|--------------------|
|-------------------|--------------------|
|-------------------|--------------------|
|-5-5--5-5-5-5--5-5-|--7--7-7-7--7-7-7-7-|
|-5-5--5-5-5-5--5-5-|--7--7-7-7--7-7-7-7-|
|-3-3--3-3-3-3--3-3-|--5--5-5-5--5-5-5-5-|
|
| Q    Q   E Q.       +H         E E E E
|-------------------|--------------------|
|-------------------|--------------------|
|-9---11------------|-----------11p9-7s9-|
|----------9-7------|-(7)----------------|
|-------------------|--------------------|
|-------------------|--------------------|


  B5
  E    E E E E E E E    E  E E E E E E E
|--------------------|--------------------|
|--------------------|--------------------|
|--------------------|--------------------|
|-9----9-9-9-9-9-9-9-|--9--9-9-9-9-9-9-9--|
|-9----9-9-9-9-9-9-9-|--9--9-9-9-9-9-9-9--|
|-7----7-7-7-7-7-7-7-|--7--7-7-7-7-7-7-7--|
|
| W                    +W
|--------------------|--------------------|
|--------------------|--------------------|
|-9b11---------------|-(9)----------------|
|--------------------|--------------------|
|--------------------|--------------------|
|--------------------|--------------------|


  B5                                            B5
  Gtrs I, II
  >
  W          +W           +W           +H.      E E
|----------|------------|------------|---------------|
|----------|------------|------------|---------------|
|----------|------------|------------|---------------|
|-9--------|-(9)--------|-(9)--------|-(9)------9-9--|
|-9--------|-(9)--------|-(9)--------|-(9)------9-9--|
|-7--------|-(7)--------|-(7)--------|-(7)------7-7--|


  G5            A5            G5            A5
  H    Q  E E   H    Q  E E   H    Q  E E   H    Q  E E
|-------------|-------------|-------------|--------------|
|-------------|-------------|-------------|--------------|
|-------------|-------------|-------------|--------------|
|-5----5--5-5-|-7----7--7-7-|-5----5--5-5-|-7----7--7-7--|
|-5----5--5-5-|-7----7--7-7-|-5----5--5-5-|-7----7--7-7--|
|-3----3--3-3-|-5----5--5-5-|-3----3--3-3-|-5----5--5-5--|


  G5                A5                B5                D5
  Gtr I
                                                    <
  E E E E E E E E   E E E E E E E E   E E E E E E E E   E E E E E E E E
|-----------------|-----------------|-----------------|------------------|
|-----------------|-----------------|-----------------|------------------|
|-----------------|-----------------|-----------------|-7-7-7-7-7-7-7-7--|
|-----------------|-----------------|---------9-9-9-9-|-7-7-7-7-7-7-7-7--|
|-5-5-5-5-5-5-5-5-|-7-7-7-7-7-7-7-7-|-9-9-9-9-9-9-9-9-|-5-5-5-5-5-5-5-5--|
|-3-3-3-3-3-3-3-3-|-5-5-5-5-5-5-5-5-|-7-7-7-7-7-7-7-7-|------------------|
|
| Gtr II
| W                 W                 W                 H       E E E E
|-----------------|-----------------|-----------------|------------------|
|-----------------|-----------------|-----------------|---------7-8-7----|
|-----------------|-----------------|-----------------|---------------7--|
|-----------------|-----------------|-----------------|------------------|
|-----------------|-----------------|-----------------|------------------|
|-----------------|-----------------|-----------------|------------------|


  G5                 A5                B5                 D5
  E E E E E E  E E   E E E E E E E E   E E E E E E  E E   E E E E E E E E
|------------------|-----------------|------------------|------------------|
|------------------|-----------------|------------------|------------------|
|------------------|-----------------|------------------|-7-7-7-7-7-7-7-7--|
|-5-5-5-5-5-5--5-5-|-7-7-7-7-7-7-7-7-|-9-9-9-9-9-9--9-9-|-7-7-7-7-7-7-7-7--|
|-5-5-5-5-5-5--5-5-|-7-7-7-7-7-7-7-7-|-9-9-9-9-9-9--9-9-|-5-5-5-5-5-5-5-5--|
|-3-3-3-3-3-3--3-3-|-5-5-5-5-5-5-5-5-|-7-7-7-7-7-7--7-7-|------------------|
|
| E E E E E E  E E   E E E E E E E E   E E E E E E  E E   E E E E E E E E
|------------------|-----------------|------------------|------------------|
|------------------|---------7-8-7---|------------------|---------7-8-7----|
|-7-7-9-7-7-7-11-7-|-7-7-9-7-------7-|-7-7-9-7-7-7-11-7-|-7-7-9-7-------7--|
|------------------|-----------------|------------------|------------------|
|------------------|-----------------|------------------|------------------|
|------------------|-----------------|------------------|------------------|


    G5                 A5                B5                 D5
    E E E E E E  E E   E E E E E E E E   E E E E E E  E E   E E E E E E E E
||-------------------|-----------------|------------------|-----------------|
||o------------------|-----------------|------------------|-----------------|
||-------------------|-----------------|------------------|-7-7-7-7-7-7-7-7-|
||--5-5-5-5-5-5--5-5-|-7-7-7-7-7-7-7-7-|-9-9-9-9-9-9--9-9-|-7-7-7-7-7-7-7-7-|
||o-5-5-5-5-5-5--5-5-|-7-7-7-7-7-7-7-7-|-9-9-9-9-9-9--9-9-|-5-5-5-5-5-5-5-5-|
||--3-3-3-3-3-3--3-3-|-5-5-5-5-5-5-5-5-|-7-7-7-7-7-7--7-7-|-----------------|
|
|   E E E E E E  E E   E E E E E E E E   E E E E E E  E E   E E E E E E E E
||-------------------|-----------------|------------------|-----------------|
||o------------------|---------7-8-7---|------------------|---------7-8-7---|
||--7-7-9-7-7-7-11-7-|-7-7-9-7-------7-|-7-7-9-7-7-7-11-7-|-7-7-9-7-------7-|
||-------------------|-----------------|------------------|-----------------|
||o------------------|-----------------|------------------|-----------------|
||-------------------|-----------------|------------------|-----------------|


                                                          1.,2.
  G                  A5                B5                 D5
  E E E E E E  E E   E E E E E E E E   E E E E E E  E E   E E E E E E E E   3x
|------------------|-----------------|------------------|-------------------||
|------------------|-----------------|------------------|------------------o||
|------------------|-----------------|------------------|-7-7-7-7-7-7-7-7---||
|-5-5-5-5-5-5--5-5-|-7-7-7-7-7-7-7-7-|-9-9-9-9-9-9--9-9-|-7-7-7-7-7-7-7-7---||
|-5-5-5-5-5-5--5-5-|-7-7-7-7-7-7-7-7-|-9-9-9-9-9-9--9-9-|-5-5-5-5-5-5-5-5--o||
|-3-3-3-3-3-3--3-3-|-5-5-5-5-5-5-5-5-|-7-7-7-7-7-7--7-7-|-------------------||
|
| E E E E E E  E E   E E E E E E E E   E E E E E E  E E   E E E E E E E E   3x
|------------------|-----------------|------------------|-------------------||
|------------------|---------7-8-7---|------------------|---------7-8-7----o||
|-7-7-9-7-7-7-11-7-|-7-7-9-7-------7-|-7-7-9-7-7-7-11-7-|-7-7-9-7-------7---||
|------------------|-----------------|------------------|-------------------||
|------------------|-----------------|------------------|------------------o||
|------------------|-----------------|------------------|-------------------||


  3.
  D5        A5  G5
  E E E E E E E E   +Q    H.
|-----------------|-------------*|
|-----------------|-------------*|
|-7-7-7-7---------|-------------*|
|-7-7-7-7---7---5-|-(5)\--------*|
|-5-5-5-5---7---5-|-(5)\--------*|
|-----------5---3-|-(3)\--------*|
|
| E E E E E E E E   +Q    H.
|-----------------|-------------*|
|---------7-8-7---|-------------*|
|-7-7-9-7-------7-|-(7)\--------*|
|-----------------|-------------*|
|-----------------|-------------*|
|-----------------|-------------*|




--------------------------------------------------------------------------------


Duration Legend
---------------
W - whole; H - half; Q - quarter; E - 8th; S - 16th; T - 32nd; X - 64th; a - acciaccatura
+ - note tied to previous; . - note dotted; .. - note double dotted
Uncapitalized letters represent notes that are staccato (1/2 duration)
Irregular groupings are notated above the duration line
Duration letters will always appear directly above the note/fret number it represents the
duration for.  Duration letters with no fret number below them represent rests.  Multi-
bar rests are notated in the form Wxn, where n is the number of bars to rest for.  Low
melody durations appear below the staff

Tablature Legend
----------------
 h   - hammer-on
 p   - pull-off
 b   - bend
 pb  - pre-bend
 r   - bend release (if no number after the r, then release immediately)
 /\  - slide into or out of (from/to "nowhere")
 s   - legato slide
 S   - shift slide
 - natural harmonic
[n]  - artificial harmonic
n(n) - tapped harmonic
 ~   - vibrato
 tr  - trill
 T   - tap
 TP  - trem. picking
 PM  - palm muting
\n/  - tremolo bar dip; n = amount to dip
 \n  - tremolo bar down
 n/  - tremolo bar up
/n\  - tremolo bar inverted dip
 =   - hold bend; also acts as connecting device for hammers/pulls
 <> - volume swell (louder/softer)
 x   - on rhythm slash represents muted slash
 o   - on rhythm slash represents single note slash

Misc Legend
-----------
 |  - bar
||  - double bar
||o - repeat start
o|| - repeat end
*|  - double bar (ending)
 :  - bar (freetime)
 $  - Segno
 &  - Coda
Tempo markers -  = BPM(8/16=s8/s16), where s8 = swing 8ths, s16 = swing 16ths

Comments