Copeland - Love Is A Fast Song Chords & Tabs

 

Love Is A Fast Song Chords & Tabs

Copeland Chords & Tabs

Version: 1 Type: Tab 0 ratings
1 star 2 stars 3 stars 4 stars 5 stars
comments

Love Is A Fast Song Tab

-------------------------------------------------------------------------------
                           Love Is A Fast Song-Copeland
-------------------------------------------------------------------------------
Tabbed by: Sean Ewing
Email: metalfan44ne@adelphia.net

Tuning: Dropped D- DADGBE
[ Tab from: http://www.guitartabs.cc/tabs/c/copeland/love_is_a_fast_song_tab.html ]
e|----------------------------------------------------------------------------|
b|----------------------------------------------------------------------------|
G|----------------------------------------------------------------------------|
D|---------------------------------------------------------9-9-----8\---------|
A|---------------9-8------------------9-8------------------9-9-----8\---------|
D|-----------/8-------6-8-11-----/8--------6-8-11----------9-9-----8\---------|

e|----------------------------------------------------------------------------|
b|----------------------------------------------------------------------------|
G|----------------------------------------------------------------------------|
D|---1---4---3---6---8---11\-----x2------------------------9-9-----8\---------|
A|---1---4---3---6---8---11\-------------------------------9-9-----8\---------|
D|---1---4---3---6---8---11\-------------------------------9-9-----8\---------|
Comments