Copeland - Coffee Chords & Tabs

 

Coffee Chords & Tabs

Copeland Chords & Tabs

Version: 1 Type: Chords 0 ratings
1 star 2 stars 3 stars 4 stars 5 stars
comments

Coffee Chords

   
  G                       C9
There's plenty of time left tonight
  G                       C9
I promised I'd have you home before daylight.
We do the best we can in a small town,
act like big-city kids when the sun goes down.

C9                                           Fm                  
If it's not too late for coffee I'll be at you place in ten.
                     Asus2                      C9
We'll hit that all night diner and then we'll see.

e|-------------------------------------------------------------------------|
B|-------------------------------------------------------------------------|
G|-----7---------------------7---------------------------------------------|
D|-4-5---4-5-9-7-7--4-5-4-5----4-5--9-7-7----4-5---------------------------|
A|-------------------------------------------------5-----------------------|
E|-------------------------------------------------------------------------|
[ Tab from: http://www.guitartabs.cc/tabs/c/copeland/coffee_crd.html ]
G                              
There are so many things I have to say
                  C9
and I'll stay up all night to hear about your day.
 G
We do the best we can in a small town
                                     C9
to act like kids in love when the sun goes down.

C9                                           Fm                  
If it's not too late for coffee I'll be at you place in ten.
                     Asus2                      C9
We'll hit that all night diner and then we'll see.

G                           Fm7                    Em         Em7
There's a love that transcends all that we've known of ourselves
Am7             C9    C                
and I'll wait for it to come.
G               Fm7                   Em     Em7
It's got to be strong to touch my heart through it's shell
Am7             C9        C
and I'll wait for it to come.

e|-------------------------------------------------------------------------|
B|-3---7--5--5--3----------------------------------------------------------|
G|-----------------x2------------------------------------------------------|
D|-------------------------------------------------------------------------|
A|-------------------------------------------------------------------------|
E|-------------------------------------------------------------------------|
Comments