Copeland - California Chords & Tabs

 

California Chords & Tabs

Copeland Chords & Tabs

Version: 2 Type: Tab

California Tab

----------------------------------------------------------------------------
			     "California" solo/outro - Copeland
----------------------------------------------------------------------------
Tabbed by: Adam Elverson
Email: untildesirekills@hotmail.com

Tuning: standard

Alternates between these two solos
[ Tab from: http://www.guitartabs.cc/tabs/c/copeland/california_tab_ver_2.html ]
e|-------------------------------------------------------------------------|
B|-------------------------------------------------------------------------|
G|----------7------------------7-------------------------------------------|
D|-2--4--5-----9---7--2--4--5----9-10-9-7----------------------------------|
A|-------------------------------------------------------------------------|
E|-------------------------------------------------------------------------|

e|-------------------------------------------------------------------------|
B|-------------------------------------------------------------------------|
G|----------7--------------------------------------------------------------|
D|-2--4--5-----9---7--2--4--5--7--7/9--5/4---------------------------------|
A|-------------------------------------------------------------------------|
E|-------------------------------------------------------------------------|