Copacetic - Bleed Chords & Tabs

 

Bleed Chords & Tabs

Copacetic Chords & Tabs

Version: 1 Type: Tab 0 ratings
1 star 2 stars 3 stars 4 stars 5 stars
comments

Bleed Tab

   
#----------------------------------PLEASE NOTE---------------------------------#
#This file is the author's own work and represents their interpretation of the #
#song. You may only use this file for private study, scholarship, or research. #
#------------------------------------------------------------------------------##
*** Bleed
*** by Copacetic
      Dennis Kim
      Sonny Barnette
*** (c) 1995

[ STANDARD TUNING ]

   F    E    B-   Go   G    D-   A-   c
e--1----0----2----3----3----1----0----0----|
B--1----0----3----3----3----3----1----1----|
G--2----1----4----0----4----2----2----0----|
D--3----2----4----0----5----0----2----2----|
A--3----2----2----2----5----x----0----3----|
E--1----0----x----3----1----x----x----x----|
[ Tab from: http://www.guitartabs.cc/tabs/c/copacetic/bleed_tab.html ]
*** Intro
F         E
*** End Intro
---
B-        G         F        E
my life is dripping down the well
B-        G         F        E
and splashing sparkles in the dark water
D-        Go        A-       c
my life turns scarlet in the air
D-        Go        A-       c
changes whomever it touches
---
B-        G         F        E
i bleed my thoughts to the world
B-        G         F        E
dark and bright and warm
D-        Go        A-       c
but still cold to the fire that burns
A         E         D        Go
in my heart tonight
---
*** Begin Chorus
A-       D        Go
i'll bleed for you
A-       D        Go
bleed without a wound
Go       D        A-
my life spills my love for you
A-       D        Go
bleed without a sound
F        E
*** End Chorus
---
B-       G        F          E
the stars are red the night deeper
B-       G        F          E
i can see the moon at the well's bottom
D-       Go       A-         E
and your eyes take a lunar gaze
A        E        D          Go
i'll see your soul mirrored in the silverness
---
[ CHORUS ]

[ FADE TO SILENCE--2 MEASURES ]

e------------------------------------------------------|--|
B----------3-----------3-----------3-----------3-------|--|
G--------4---4-------4---4-------4---4-------4---4-----|--|
D------4-------4---4-------4---5-------5---5-------5---|--|
A----2-----------2-----------5-----------5-------------|--|
E------------------------------------------------------|--|

           don't      bleed        for          me

e------------------------------------------------------|---|
B----------1-----------1-----------0-----------0-------|---|
G--------2---2-------2---2-------1---1-------1---1-----|---|
D------3-------2---3-------3---2-------2---2-------2~~-|---| <- Let ring
A----3-----------3-----------2-----------2-------------|---|    for one
E------------------------------------------------------|---|    measure
           don't       bleed       for          me...

---
*** Begin Solo
e-------------------------------------------------------------------|
B-------------------------------------------------------------------|
G-6b7r6-/-7-77-\-4-44-44-6b7r6~-7-77-\-0-----------------10-10-10-9-|
D----------------------------------------77-6-66---------10-10-10-9-|
A--------------------------------------------------5-/-7--8--8--8-7-|
E------------------------------------------------0------------------|
*** End Solo
---
B-       G        F          E
i'll bleed to the well
B-       G        F          E
and when you drink the silver water
D-       Go       A-         E
you'll taste of me bleeding the moon
A        E        D          Go
taste the warmth from the fire in my heart
---
[ CHORUS ]
---
A-       D        Go
bleed without a sound
---
*** Outro
  E    F            E
e------------------------------|
B--1-/-2--2--2--2-\-1----------|
G--2-/-3--3--3--3-\-2----------|
D--2-/-3--3--3--3-\-2----------|
A------------------------------|
E------------------------------|
*** End

Key:  " - " : minor chord
      " ~ " : vibrato
      " / " : slide up
      " \ " : slide down
      " Go" : open G chord
Comments