Cootees - Shut Up Chords & Tabs

 

Shut Up Chords & Tabs

Cootees Chords & Tabs

Version: 2 Type: Bass Tab 0 ratings
1 star 2 stars 3 stars 4 stars 5 stars
comments

Shut Up Bass Tab

   
Bass Tab
Band: The Cootees
Song: Shut Up!
Album: Let's Play House
Tabbed By: Ernie

Note: I did not write how many times you play each note.  Listen to the
song to get timing/rythme down.

Intro and Verse (The "ah shut up!" part):
D, G, F, A
or
G|---------------------------------------
D|---------------------------------------
A|----5----------------------------------
E|------------------3--0---5-------------

Riff between Verse and Chorus:
B, A, G, A,
or
G|--------------------------------------
D|--------------------------------------
A|----2---0-------0---------------------
E|-------------3-------------------------

Chorus (The 'What are you doing tomorrow or today' part):
D, A, B, G,
or
G|-------------------------------------------
D|-------------------------------------------
A|-----5--------2---------------------------
E|----------5---------3----------------------
[ Tab from: http://www.guitartabs.cc/tabs/c/cootees/shut_up_btab_ver_2.html ]
Bridge:
D, G*, F#*, D, G*, F#*, G, A, B, G, A
or
G|--------------------------------------------------------------------
D|--------------------------------------------------------------------
A|----5-5--5-5--5-5--5-5----------5-5--5-5--5-5--5-5------------
E|---------------------------3*-2*------------------------3*-2*----
*leave these notes out second time through
Bridge Continued
G|------------------------------------------
D|-------------------------------------------
A|-------------------------------------------
E|----3----5----7----3--5-------------------
Repeat

Ending
D, G, F#, D
or
G|--------------------------------------------------
D|--------------------------------------------------
A|---5-5--5-5--5-5--5-5----------5-5--5-5--5-5--
E|---------------------------3--2-------------------

The Cootees kick butt.  I've tabbed most of their songs, so if you want
them, send them (Or questions/comments/corrections) to
isaac@zdomain.com
Comments