Cootees - No Cure 4 Us Chords & Tabs

 

No Cure 4 Us Chords & Tabs

Cootees Chords & Tabs

Version: 2 Type: Bass Tab 0 ratings
1 star 2 stars 3 stars 4 stars 5 stars
comments

No Cure 4 Us Bass Tab

the cooties "no cure 4 us"

verse x3
g---------------------------------------------
d---------------------------------------------
a-----5----------------------------------------
e-5-3-------------------------------------------
[ Tab from: http://www.guitartabs.cc/tabs/c/cootees/no_cure_4_us_btab_ver_2.html ]
end verse
g---------------------------------------------
d---------------------------------------------
a---5---5---3-----5---3-----------------------
e-5---5---3---5-5---3---5---------------------

chorus x6
g---------------------------------------------
d---------------------------------------------
a---------------------------------------------
e-3-5-----------------------------------------

by brettromero
Comments