Cootees - Dirty Punk Chords & Tabs

 

Dirty Punk Chords & Tabs

Cootees Chords & Tabs

Version: 1 Type: Bass Tab 0 ratings
1 star 2 stars 3 stars 4 stars 5 stars
comments

Dirty Punk Bass Tab

   
Bass Tab
Band: The Cootees
Song: Dirty Punk
Album: Let's Play House
Tabbed By: Ernie

Listen to the song to get the rythme and timing down.

Open up with a C#

Intro and Verse:
C#, High E, High F#, B
or
G|-----------------------------------------------
D|-------------2-2--2---4-4--4------------------
A|----4-4--4----------------------2-2--2--------
E|------------------------------------------------
Whenever it's just guitar playing, play a C# when the 2nd guitar plays
the chord

The cool little riff at end of intro:
G|----6-----4----------------6---------------------
D|---------------6---4---2------4----2------------
A|------------------------------------------------
E|-------------------------------------------------
If it's not that, it's really close
[ Tab from: http://www.guitartabs.cc/tabs/c/cootees/dirty_punk_btab.html ]
Chorus, part 1:
A, G#, D, A, G#, F#
or
G|-----------------------------------------------------------------------------

D|-----------------------------------------------------------------------------
A|----------------------5-5-5-5-5-5-5-5--------------------------------------
E|----5-5--5--4-4--4----------------------5-5--5--4-4--4--2-2-2-2-2-2-2-2-

Chorus, part 2
D, A, G#, D, F#, A, D, A, G#, F#, A
or
G|--------------------------------------------------
D|----------------------------------------------------
A|---5----------5-----------5-----------------------
E|-------5--4-------2---5------5--4---2----5--------
Note: I did not put how many times you play the note, so listen to the
song)

Ending: Repeat Intro

Cool song.  It's a shame the cootees broke up.  Send
questions/comments/requests to isaac@zdomain.com

Comments