Cooper Temple Clause - Panzer Attack Chords & Tabs

 

Panzer Attack Chords & Tabs

Cooper Temple Clause Chords & Tabs

Version: 1 Type: Bass Tab 0 ratings
1 star 2 stars 3 stars 4 stars 5 stars
comments

Panzer Attack Bass Tab

Panzer Attack

Bassline

G--------------------------------9-------
D----------------------------7-9---9-7---
A-10-7-7-7-10-7-7-7-10-7-7-7-------------
E----------------------------------------

G----------------------------------------
D----------------------------------------
A-10-7-7-7-10-7-7-7-10-7-7-7-10-7--------
E---------------------------------0-7-10-


[ Tab from: http://www.guitartabs.cc/tabs/c/cooper_temple_clause/panzer_attack_btab.html ]
G--9-9-7-7--------------------------------
D----------9-9-7-7------------------------
A------------------10-7-------------------
E-----------------------------------------


E-3-3-3-1-1-1-5-5-5-3-3-3-3-3-3-3---------


G-9-9-7-9-9-9-7-9-9-9-7-9-797--------------
D-----------------------------9-7----7-----
A---------------------------------10---10-7
E------------------------------------------

G-7-9-7------------------------------------
D-------9-7--------------------------------
A------------------------------------------
E------------------------------------------
Comments