Cooper Temple Clause - Aim Chords & Tabs

 

Aim Chords & Tabs

Cooper Temple Clause Chords & Tabs

Version: 1 Type: Tab 0 ratings
1 star 2 stars 3 stars 4 stars 5 stars
comments

Aim Tab

A.I.M

First Verse

E-------------------------------------------------
B-------------------------------------------------
G--9--11-8--9--6--2-4-----------------------------
D-------------------------------------------------
A-------------------------------------------------
E-------------------------------------------------x2

E-------------------------------------------------
B--10--12-9--10--7--3-5---------------------------
G--9------8---------------------------------------
D-------------------------------------------------
A-------------------------------------------------
E-------------------------------------------------x2


Chorus

E-------------------------------------------------
B-------------------------------------------------
G-------------2-----------------------------------
D----4--------2-----------------------------------
A----4--------0-----------------------------------
E----2--------------------------------------------x4

[ Tab from: http://www.guitartabs.cc/tabs/c/cooper_temple_clause/aim_tab.html ]
Fiddle around with some delay effects for the gap between chorus
and verse, but if you're playing the song with a synth-ist then 
remain silent.


Second Verse 


E-------------------------------------------------
B-------------------------------------------------
G-------------------------------------------------
D---7--9-6--7--4--0--2----------------------------
A-------------------------------------------------
E-------------------------------------------------x4


Chorus

Bridge between chorus and extremely mental ending

Extremely Mental Ending


E-------------------------------------------------
B-------------------------------------------------
G-------------------------------------------------
D--4-4-4-4-4-4-4-4-4-4-4-4-4-4-4-4-4-4-4-4-4-4-4--
A--4-4-4-4-4-4-4-4-4-4-4-4-4-4-4-4-4-4-4-4-4-4-4--
E--2-2-2-0-2-0-2-2-2-2-2-2-2-2-2-0-2-0-2-2-2-2-2-5

E-------------------------------------------------
B-------------------------------------------------
G-------------------------------------------------
D--4-4-4-4-4-4-4-4-4-4-4-4-4-4-4-4-4-4-4----------
A--4-4-4-4-4-4-4-4-4-4-4-4-4-4-4-4-4-4-4-3-3-3-2-2-0
E--2-2-2-0-2-0-2-2-2-2-2-2-2-2-2-0-2-0-2----------   x8

Comments