Converge - Locust Reign Chords & Tabs

 

Locust Reign Chords & Tabs

Converge Chords & Tabs

Version: 2 Type: Tab 0 ratings
1 star 2 stars 3 stars 4 stars 5 stars
comments

Locust Reign Tab

Locust Reign
By Converge

Tab by Tommy Boy

Tune down 1/2 step

Everything that has [brackets] around it on top of the tab is
supposed to be palm muted.  "Tr." means tremolo pick.


First part:


   [PM        ] []  [                ]
-----------------------------------------|
-----------------------------------------|
-----------------------------------------|
-------------------4---------------------|
-2-------------3---2------4-3-------4-3--|
-0-0-0-0-0-0-0-1-0--0-0-1-----0-1-3------|

  [           ] []  [] Tr  Tr  Tr Tr
-----------------------------------------|
-----------------------------------------|
-----------------------9---8---6--9--5---|
-------------------4---------------------|
-2-------------3---2---------------------|
-0-0-0-0-0-0-0-1-0--0--------------------|


   [PM        ] []  [                ]
-----------------------------------------|
-----------------------------------------|
-----------------------------------------|
-------------------4---------------------|
-2-------------3---2------4-3-------4-3--|
-0-0-0-0-0-0-0-1-0--0-0-1-----0-1-3------|

  [          ]  []  []
-----------------------------------------|
-----------------------------------------|
----------------------9---8---9---8------|
-------------------4--7---6---9---8------|
-2-------------3---2--7---6---7---6------|
-0-0-0-0-0-0-0-1-0--0--------------------|


   [PM        ] []  [                ]
-----------------------------------------|
-----------------------------------------|
-----------------------------------------|
-------------------4---------------------|
-2-------------3---2------4-3-------4-3--|
-0-0-0-0-0-0-0-1-0--0-0-1-----0-1-3------|


  [           ] []  [] Tr  Tr  Tr  Tr
-----------------------------------------|
-----------------------------------------|
-----------------------9---8---7---6-----|
-------------------4---------------------|
-2-------------3---2---------------------|
-0-0-0-0-0-0-0-1-0--0--------------------|

[ Tab from: http://www.guitartabs.cc/tabs/c/converge/locust_reign_tab_ver_2.html ]
   [PM        ] []  [                ]
-----------------------------------------|
-----------------------------------------|
-----------------------------------------|
-------------------4---------------------|
-2-------------3---2------4-3-------4-3--|
-0-0-0-0-0-0-0-1-0--0-0-1-----0-1-3------|


  [          ]  []  []
-----------------------------------------|
-----------------------------------------|
----------------------9---8--------------|
-------------------4--9---8---10--9------|
-2-------------3---2--7---6---10--9------|
-0-0-0-0-0-0-0-1-0--0---------8---7------|


Slower part (repeat this four times):

[                                         ]
--------------------------------------------------|
--------------------------------------------3b5---|
--------------------------------------------------|
--------------------------------------------------|
-2---2---2---2-2-2---2-2-2---2---2---2-2-2--------|
-0---0---0---0-0-0---0-0-0---0---0---0-0-0--------|


[                                     ]
--------------------------------------------------|
--------------------------------------------------|
--------------------------------------------------|
--------------------------------------------------|
-2---2---2---2-2-2---2-2-2---2---2---2-----3-4----|
-0---0---0---0-0-0---0-0-0---0---0---0-0-1-----3--|

After the second time, a second guitar comes in tremolo
picking a 7th fret harmonic on the low E string.  I'm
not going to tab that out; I just explained it and it's
easy.


Last part:


-----------------------------------------|
-----------------------------------------|
-----------------------------------------|
-----------------------------------------|
-----3-4---------4-3-----3-4---------4-3-|
-0-1-----3-0-1-3-----0-1-----3-0-1-3-----|

Repeat that a bunch of times.

The very last part is just a low D# chord played
palm muted with a galloping rhythm.  Not too tough.
This whole song isn't too hard actually, it's just
getting used to the weird rhythm on the first part
that makes it difficult.

LO. . . CUST. . . REIGN!!!!!!
Comments