Converge - Antithesis Chords & Tabs

 

Antithesis Chords & Tabs

Converge Chords & Tabs

Version: 1 Type: Tab 0 ratings
1 star 2 stars 3 stars 4 stars 5 stars
comments

Antithesis Tab

ANTITHESIS - Converge

  Intro
   ________________________________________  ____________________
  | 1.					    | 2.
E|-----------------------------------------|---------------------|
B|-----------------------------------(x6)--|----------(x4)/(x4)--|
G|-----------------------------------------|------6--------------|
D|----4-5----4-4/5----4-5-----4-4/5--------|----5----------------|
A|--4------4--------4-------4--------------|--4------------------|
D|-----------------------------------------|---------------------|

   Verse
E|-----------------------------------------------------------------------------------------|
B|-----------------------------------------------------------------------------------------|
G|-----------------------------------------------------------------------4-4-4-4--------6--|
D|--1-0-0-1-0-0-1-0-0-1-0-0----5-5-5---5-5-5----1-0-0-1-0-0-1-0-0-1-0-0--4-4-4-4----3-5----|
A|--1-0-0-1-0-0-1-0-0-1-0-0--3-------3----------1-0-0-1-0-0-1-0-0-1-0-0--2-2-2-2--2--------|
D|--1-0-0-1-0-0-1-0-0-1-0-0---------------------1-0-0-1-0-0-1-0-0-1-0-0--------------------|

E|-----------------------------------------------------------------------|-------------------------|
B|-----------------------------------------------------------------------|-------------------------|
G|-----------------------------------------------------------------------|--5-4-4--5-5-4-4--5-5-4--|
D|--1-0-0-1-0-0-1-0-0-1-0-0----5-5-5---5-5-5----1-0-0-1-0-0-1-0-0-1-0-0--|--5-4-4--5-5-4-4--5-5-4--|
A|--1-0-0-1-0-0-1-0-0-1-0-0--3-------3----------1-0-0-1-0-0-1-0-0-1-0-0--|--3-2-2--3-3-2-2--3-3-2--|
D|--1-0-0-1-0-0-1-0-0-1-0-0---------------------1-0-0-1-0-0-1-0-0-1-0-0--|-------------------------|

   Repeat Verse

   Chorus/Break
E|-----------------|-----|-----------------------|
B|-----------(x )--|-----|-----------------(x )--|
G|--5-5-4-4--------|--4--|---------4-------------|
D|--5-5-4-4--------|-----|----4-5----5-4---------|
A|--3-3-2-2--------|-----|--2--------------------|
D|-----------------|-----|-----------------------|

E|--------------------------------------------------------------------------------------------|
B|--------------------------------------------------------------------------------------(x2)--|
G|---------------------------------------------------------------5-5-5-5--7-7-7--8-8-8--------|
D|--2-2-2-2--5-5-5-4-----7-7-7--5-5-5-4------2-2-2-2--5-5-5-4----5-5-5-5--7-7-7--8-8-8--------|
A|--2-2-2-2----------5---7-7-7----------5----2-2-2-2----------5--3-3-3-3--5-5-5--6-6-6--------|
D|--2-2-2-2--------------7-7-7---------------2-2-2-2------------------------------------------|
[ Tab from: http://www.guitartabs.cc/tabs/c/converge/antithesis_tab.html ]
E|--------------------|----------------------------------|----------|----------------------------------|
B|--------------(x )--|----------------------------(x )--|----------|----------------------------(x )--|
G|--9-8---------------|-------9-8----------9-8-10--------|----------|-------9-8----------9-8-10--------|
D|-------8-8----------|--2-2--9-8-8---2-2--9-8-10--------|--2----3--|--2-2--9-8-8---2-2--9-8-10--------|
A|--------------------|--2-2--7-6-8---2-2--7-6-8---------|--2-------|--2-2--7-6-8---2-2--7-6-8---------|
D|--------------------|--2-2------8---2-2----------------|--2-------|--2-2------8---2-2----------------|

 







  Repeat Verse

E|----------------------------|        
B|----------------------(x )--|        
G|----------------------------| Repeat  
D|-----------2-2-2-2-2--------| Intro  
A|--6-6-6-6--2-2-2-2-2--------|         
D|-----------2-2-2-2-2--------|        

E|-------------------|-------------------|--------------------------------------------------|
B|-------------------|-------------------|--------------------------------------------(x )--|
G|--11-11-11---------|-------------------|---------------------------------------12---------|
D|--11-11-11--2-2-2--|--2-2-2--5-5-5--2--|------------------------------------------11------|
A|--9--9--9---2-2-2--|--2-2-2--5-5-5--2--|--7-7-7--10-10-10---7-7-7--10-10-10-10------------|
D|------------2-2-2--|--2-2-2--5-5-5--2--|--------------------------------------------------|
 

  _______________________________________  
 | 1.                                     
E|-------------------------------7--------| 
B|----------------------------------------|
G|----------------------------------------| 
D|--5-5-5--2-2-2--5-5-5--2-2-2-2----------| 
A|--5-5-5--2-2-2--5-5-5--2-2-2-2----(x )--| 
D|--5-5-5--2-2-2--5-5-5--2-2-2-2----------| 

  ___________________________                                                    
 | 2.                                                                           
E|----------------------------|-------------------------------------------------|
B|--13-13-13-13-13-13---------|-------------------------------------------(x )--|
G|----------------------------|--------------------------------------12---------|
D|----------------------------|-----------------------------------------11------|
A|---------------------.-.-.--|--7-7-7--10-10-10---7-7-7--10-10-10-10-----------|
D|----------------------------|-------------------------------------------------|

E|---------------------------------------------------------------------------||
B|---------------------------------------------------------------------------||
G|---------------------------------------------------------------------------||
D|---------------------------------------------------------------------------||
A|--7-7-7--10-10-10---7-7-7--10-10-10--10------------------------------------||
D|---------------------------------------------------------------------------||

===============================================================================
Comments