Contraband - Floss Chords & Tabs

 

Floss Chords & Tabs

Contraband Chords & Tabs

Version: 1 Type: Tab 0 ratings
1 star 2 stars 3 stars 4 stars 5 stars
comments

Floss Tab

enjoy.
clean 4x then hit distortion pretty lively
[ Tab from: http://www.guitartabs.cc/tabs/c/contraband/floss_tab.html ]
e------------------------------------------------------------------|
B------------------------------------------------------------------|
G------------------------------------------------------------------|
D-9-9-9-12-12-12-7-7-7-10-10-10------------------------------------|
A-9-9-9-12-12-12-7-7-7-10-10-10------------------------------------|
E-7-7-7-10-10-10-5-5-5--8--8--8------------------------------------|
 4x distortion then both verse lyrics:
  I'm so sick and i need a pill
  Roll down the sucker's hill
  I just ran out of words
  I am so absurd
repeat top part 2x w/ distortion
repeat whole thing 2 times total then:

chorus:
same chords as above:
Floss IN
Floss OUT
Floss IN
Floss OUT
repeat chords 8x and end on:

e-------------------------------------------------|
B-------------------------------------------------|
G-------------------------------------------------|
D-09-------------09-------------09^slowly unbend--|
A-09-------------09-------------09^---------------|
E-07-------------07-------------07^---------------|
Comments