Consumed - Start Living Chords & Tabs

 

Start Living Chords & Tabs

Consumed Chords & Tabs

Version: 1 Type: Tab 0 ratings
1 star 2 stars 3 stars 4 stars 5 stars
comments

Start Living Tab

                        START LIVING - Consumed


Transcribed by: concrete@dog.com  -  www.angelfire.com/punk/oskertab
[ Tab from: http://www.guitartabs.cc/tabs/c/consumed/start_living_tab.html ]
intro/chorus
-------------------------------------|----------------------------------------
-------------------------------------|----------------------------------------
-------------------------------------|----------------------------------------
---------------------8-8-8-8---------|----------------------------------------
-9-9-9-9-11-11-11-11-6-6-6-6-8-8-8-8-|-9-9-9-9-9-9-9-9-9-9-9-9-9-9-9-9--------
-7-7-7-7--9--9--9--9---------6-6-6-6-|-7-7-7-7-7-7-7-7-7-7-7-7-7-7-7-7--------
                                                                              
other part
------------------------------------------------------------------------------
------------------------------------------------------------------------------
------------------------------------------------------------------------------
-8-8-8-8----------------------------------------------------------------------
-6-6-6-6-11-11-11-11-9-9-9-9-9-9-9-9------------------------------------------
----------9--9--9--9-7-7-7-7-7-7-7-7------------------------------------------
                                                                              
riff 1
------------------------------------------------------------------------------
------------------------------------------------------------------------------
------------------------------------------------------------------------------
------------------------------------------------------------------------------
-6-6-6--4-4-4--1-1-1--5-5-5--9-9-9--8-8-8--6-6-6--5-5-5-----------------------
------------------------------------------------------------------------------
                                                                              
verse (riff 1 played over this)
----------------------------------------------|-------|-----------------------
----------------------------------------------|-------|-----------------------
----------------------------------------------|-------|-----------------------
----------------------------------------8-8-8-|-------|-----------------------
-9-9-9-11-11-11-4-4-4-8-8-8-4-4-4-8-8-8-6-6-6-|-8-8-8-|-11-11-11--------------
-7-7-7--9--9--9-2-2-2-6-6-6-2-2-2-6-6-6-------|-6-6-6-|--9--9--9--------------
                                                                              
solo
------------------------------------------------------------------------------
------------------------------------------------------------------------------
-11-10-8-----10--8-8-6-6-4-4-3-3------3-6-----7-10--8-11-8-11-7-10-7-10-------
---------8------------------------4-4-----8-8---------------------------------
------------------------------------------------------------------------------
------------------------------------------------------------------------------
                                  x x     x x                                 
bridge
------------------------------------------------------------------------------
------------------------------------------------------------------------------
------------------------------------------------------------------------------
-8-8-8-8-------------8--------------------------------------------------------
-6-6-6-6-11-11-11-11-8--------------------------------------------------------
----------9--9--9--9-6--------------------------------------------------------
Comments