Construkt - Only Becuase The Mask Fits Chords & Tabs

 

Only Becuase The Mask Fits Chords & Tabs

Construkt Chords & Tabs

Version: 1 Type: Tab 0 ratings
1 star 2 stars 3 stars 4 stars 5 stars
comments

Only Becuase The Mask Fits Tab

                     Only Becuase The Mask Fits
                              ConstrukT
                      www.construkthardcore.com
                        Tabbed By Robert Tyler
                      Echoesfrmthewall@yahoo.com

DADGBE
[ Tab from: http://www.guitartabs.cc/tabs/c/construkt/only_becuase_the_mask_fits_tab.html ]
Intro:(once you know this... the song is easy to figure out, 
everything is based around this im sure)
E------------------------------------------------------------
B------------------------------------------------------------
G------------------------------------------------------------
D---8/7-----------8/7-6/5-4/3-6/5-8/7------------------------
A---6/5-----------6/5-4/3-2/1-4/3-6/5------------------------
D-------0-0-0-0-0--------------------------------------------
        ---P.M---

Bridge:
E-----------------------------------------------------------
B-----------------------------------------------------------
G-----------------------------------------------------------
D--8/7--8/7-6/5-4/3-6/5-8/7---------------------------------
A--6/5--6/5-4/3-2/1-4/3-6/5---------------------------------
D-----------------------------------------------------------




Comments