Conrad - Superman Lamp Chords & Tabs

 

Superman Lamp Chords & Tabs

Conrad Chords & Tabs

Version: 1 Type: Bass Tab 0 ratings
1 star 2 stars 3 stars 4 stars 5 stars
comments

Superman Lamp Bass Tab

   
Conrad: Superman Lamp
Positive These are Correct
Tabbed by Mike
Questions email @ Conrad343@aol.com
h=hammer

Intro
G:000-333-222----------------------------------
D:------------3-33-----------------------------   2x
A:----------------------------000-333-222------
E:----------------------------------------3-33-

Verse (Part One)Repeat 4x
G:000h333h222------000h333h222-------------------
D:-----------3-33-------------3-33---------------
A:--------------------------------000h333h222----
E:-------------------------------------------3-33

G:----------------
D:----------------
A:000h333h222-----
E:-----------3-33-
[ Tab from: http://www.guitartabs.cc/tabs/c/conrad/superman_lamp_btab.html ]
Verse (Part Two)
G:000h333h555----000h333h555--------------------
D:-----------3-33-----------3-33----------------
A:------------------------------000h333h555-----
E:-----------------------------------------3-33-

G:----------------
D:----------------
A:000h333h555-----
E:-----------3-33-

Chorus (Part One)2x
G:00000000-33333333-22222222---------
D:--------------------------33333333-
A:-----------------------------------
E:-----------------------------------

Chorus (Part Two)2x
G:-----------------------------------
D:-----------------------------------
A:00000000-33333333-22222222---------
E:--------------------------33333333-
Order
1x2
2x4
3x2
2x2
4x2
5x2
2x4
3x1
2x1
4x2
5x2
2x2
Comments