Conrad - Anal Probe Chords & Tabs

 

Anal Probe Chords & Tabs

Conrad Chords & Tabs

Version: 1 Type: Bass Tab 0 ratings
1 star 2 stars 3 stars 4 stars 5 stars
comments

Anal Probe Bass Tab

Band: Conrad
Song: Anal Probe
>=let ring

Intro (also played during solo)repeat
G:-------------
D:-------2-----
A:-0--3-----3--
E:-------------
[ Tab from: http://www.guitartabs.cc/tabs/c/conrad/anal_probe_btab.html ]
Pre Verse/Chorus (Play 2x fast)
G:-------------------------
D:-----22------------------
A:-0023--32>>0-2-0-2-3-2>>-
E:-------------------------

Verse (repeat)
G:--------------------
D:----------222-------
A:0000-3333----3--333-
E:--------------------

Chorus (repeat)
G:--------------------
D:-------------2--222-
A:0000-2222-333-------
E:--------------------
Comments