Conners Jon - Diablo De La Guitarra Chords & Tabs

 

Diablo De La Guitarra Chords & Tabs

Conners Jon Chords & Tabs

Version: 1 Type: Tab 0 ratings
1 star 2 stars 3 stars 4 stars 5 stars
comments

Diablo De La Guitarra Tab

   
Diablo De La Guitarra
by Jon Conners
                classic_gtr_jon@yahoo.com
Standard Tuning
h=hammer on
p=pull off
t=tap
/=slide

4/4 time, 120 bpm

              Am                Am                                            
E||-----0h1h3-------------1h3h5----------|-----3h5h3-1--3--1--0--1--0-----0--|
B||-----------1-----------------1--------|-----------------------------3-----|
G||--------------2-----------------2-----|-----------------------------------|
D||-----------------2-----------------2--|-----------------------------------|
A||--------------------------------------|-----------------------------------|
E||--0-----------------1-----------------|--3--------------------------------|


  G6                   Em                           
-------------------------|-------------------------|
--3------3-3--1--0--1--0-|----0-0----0--0-1--3--1--|
--0--------------------0-|----0-0----0-------------|
--2--------------------2-|----2-2----2-------------|
--2--------------------2-|----2-2----2-------------|
--0--------------------0-|----0-0------------------|


  Em                             Am                           
------------------------------|------------------5-6-8-6-5-6-|
--0-0----0--1-1-3-1-0-3-1-3-5-|--5-5----5--5-6-8-------------|
--0-0----0--------------------|--5-5----5--------------------|
--2-2----2--------------------|--7-7----7--------------------|
--2-2----2--------------------|--7-7----7--------------------|
--0---------------------------|--5-5-------------------------|

[ Tab from: http://www.guitartabs.cc/tabs/c/conners_jon/diablo_de_la_guitarra_tab.html ]
                                                             
--8t5h6-8t6p5-8t5h6-3-1--0--0--|--0-1-3-1-0-3-1--0--0-------|
-------------------------------|----------------------------|
-------------------------------|----------------------------|
-------------------------2--2--|-----------------2--2-------|
-------------------------2--2--|----------------------------|
-------------------------0--0--|-----------------0--0----3--|


                                E5                                          
-----------------------------|--0----------------|--------6/-9--9----8--6--|
-----------------------------|--5----------------|--5/-8-------------------|
-----------------------------|-------------------|-------------------------|
----2-0----------------------|--2----------------|-------------------------|
--0-----3-0------------------|--2----------------|-------------------------|
------------3-1--1h3p1-0-----|--0----------------|--------------9----------|


                                                          Em                
--8---6--9---6--------8--6--|--------------------------|-------------------|
----------------------------|--3--2--1-----------------|-------------------|
----------------------------|--------------------------|--0----------------|
--10-----11--------8--------|-----------0--------------|--2----------------|
----------------8-----------|--2--1--0-----2--0--------|--2----------------|
-------------6--------------|--------------------3--1--|--0----------------|


                     
-------------------||
-------------------||
-------------------||
--2----------------||
-------------------||
--0----------------||


Comments