Connells - 74-75 Chords & Tabs

 

74-75 Chords & Tabs

Connells Chords & Tabs

Version: 5 Type: Tab 0 ratings
1 star 2 stars 3 stars 4 stars 5 stars
comments

74-75 Tab

The Connells
'74 - '75
Tabbed By: Lande Nir

* - press and leave
\ - slide

(1st Solo-opening): 00:00 - 00:11
e -------------------------------------|
B -------------------------------------|
G -----------------------3-4-----------|      } X 2
D -------------------------------------|
A ---6-4-2---2-2-2-4-------------------|
E -4-------4---------4-4---------------|

(2nd solo): 1:46-2:20
e -------------------------------------|
B -------------------------------------|
G -----------------------3-4-----------|      } X 2
D -------------------------------------|
A ---6-4-2---2-2-2-4-------------------|
E -4-------4---------4-4---------------|


e -------------------------------------|
B --2\4-2-0--2\4-2-0--9-7-4------------|
G -------------------------------------|
D -------------------------------------|
A -------------------------------------|
E -------------------------------------|
[ Tab from: http://www.guitartabs.cc/tabs/c/connells/74_75_tab_ver_5.html ]
e -------------------------------------|
B ---4-7*---7--------------------------|
G --------4---3-3-4-3------------------|
D --------------------4----------------|
A -------------------------------------|
E -------------------------------------|


e -------------------------------------|
B -------------------------------------|
G -1-3-3\4---3-1-----------------------|
D ----------------4-6------------------|
A -------------------------------------|
E -------------------------------------|

e --------------------------------------------------|
B --2\4-2-0--2\4-2-0--9-7-4--4-9-7-4-9-7-4---4\5-4--|
G -----------------------------------------4--------|
D --------------------------------------------------|
A --------------------------------------------------|
E --------------------------------------------------|

e -------------------------------------|
B -------------------------------------|
G ----4-3-1----------------------------|
D -------------------------------------|
A -------------------------------------|
E -------------------------------------|

(c) 2004 , Israel
 E-mail:landenir@walla.co.il
Comments