Connells - 74-75 Chords & Tabs

 

74-75 Chords & Tabs

Connells Chords & Tabs

Version: 2 Type: Tab 0 ratings
1 star 2 stars 3 stars 4 stars 5 stars
comments

74-75 Tab

   
Solo: The Connels 74' 75'


    C               G                Am
E--|--------------3/5-3---------0---/3-------------------------------|
B-3/5-3---3/5-3-----------5---------|----0-------3-------------------|
G--|----5-------5-------------------|--------5-------4---5-4/5-5/4---|
D--|--------------------------------|--------------------------------|
A--|--------------------------------|--------------------------------|
E--|--------------------------------|--------------------------------|
[ Tab from: http://www.guitartabs.cc/tabs/c/connells/74_75_tab_ver_2.html ]
    C               G                Am
E--|--------------------------------|--------------------------------|
B--|--------------------------------|-------------------------------3/
G--|0---------0h2h4/5-----4-----2-0-h2-------------------------------|
D--|--------------------------------|--------------------------------|
A--|--------------------------------|--------------------------------|
E--|--------------------------------|--------------------------------|

    C               G                Am              F
E--|--------------3/5-3------------3/5-3---3/5-3---------------------|
B--/5-3---3/5-3-----------5-----5---|----5-------5---------5/6---5---|
G--|----5-------5-------------------|----------------5---------------|
D--|--------------------------------|--------------------------------|
A--|--------------------------------|--------------------------------|
E--|--------------------------------|--------------------------------|

    C               G
E--|--------------------------------|
B--|--------------------------------|
G--|--------------------------------|
D--|------------------------5---4---|
A--|--------------------------------|
E--|--------------------------------|
Comments