Connells - 74-75 Chords & Tabs

 

74-75 Chords & Tabs

Connells Chords & Tabs

Version: 1 Type: Bass Tab 0 ratings
1 star 2 stars 3 stars 4 stars 5 stars
comments

74-75 Bass Tab

The Connels - 74/75
(EADG, 4/4)

tabbed by Konni (kaczmarek@redseven.de)

-very easy!!-



Verse
G|----------|-----------|----------|------|----------|-----------|----------|---|
D|----------|-----------|----------|------|----------|-----------|----------|---|
A|-----4-2--|-----4-2-1-|-----4-2--|------|-----4-2--|-----4-2-1-|-----4-2--|---|
E|-0--4-2---|-0--4-2----|-0--4-2---|-44---|-0--4-2---|-0--4-2----|-0--4-2---|-2-|
   1 2e+e3    1 2e+e3 4   1 2e+e3    1+     1 2e+e3    1 2e+e3 4   1 2e+e3    1

Chorus
G|-------|-------|-------|---|
D|-------|-------|-------|---|
A|----12-|-------|----12-|---|
E|-4-----|-2--10-|-4-----|-2-|
   1  +3   1  +3   1  +3   1

Verse
G|----------|-----------|----------|-----------|----------|-------|-----|---|
D|----------|-----------|----------|-------241-|----------|-------|-----|---|
A|-----4-2--|-----4-2-1-|-----4-2--|------4----|-----4-2--|---2---|---2-|---|
E|-0--4-2---|-0--4-2----|-0--4-2---|-44--------|-0--4-2---|-4---0-|-4---|-2-|
   1 2e+e3    1 2e+e3 4   1 2e+e3    1+  3e+e4   1 2e+e3    1 2 3   1 3   1

Chorus
G|-------|-------|-------|-------|-------|-----------|-------|---|
D|-------|-------|-------|-------|-------|-------2---|-------|---|
A|----12-|-------|----12-|-------|----12-|--------42-|----12-|---|
E|-4-----|-2--10-|-4-----|-2---3-|-4-----|-2--10-----|-4-----|-2-|
   1  +3   1  +3   1  +3   1  4+   1  +3   1  +3 4e+   1  +3   1

Interlude
G|--------------|-------01--|
D|*---2---------|-----24---*|
A|*-----42-2----|----------*|
E|--4-----4---2-|-44--------|
    1 di2e+e3 4   1+ 2e+e3
[ Tab from: http://www.guitartabs.cc/tabs/c/connells/74_75_btab.html ]
Solo
G|-------------|-------|-------------|---|--------------|-----|---------|
D|-------------|-------|----02-------|---|----02----24--|-----|-----2---|
A|-2--24-------|-------|-2-----------|---|-2-------4--4-|-----|---24----|
E|-------2--13-|-4-2-4-|-------2--13-|-4-|-------2------|-4-0-|-4-----4-|
   1 2e+ 3 4e+   1 di3   1 2e+ 3 4e+   1   1 2e+ 3 4e+e   1 3   1 2e+ 3

Verse
G|----------|-----------|----------|------|----------|-------|-----|---|
D|----------|-----------|----------|------|----------|-------|-----|---|
A|-----4-2--|-----4-2-1-|-----4-2--|------|-----4-2--|---2---|---2-|---|
E|-0--4-2---|-0--4-2----|-0--4-2---|-44---|-0--4-2---|-4---0-|-4---|-2-|
   1 2e+e3    1 2e+e3 4   1 2e+e3    1+     1 2e+e3    1 2 3   1 3   1

Chorus
G|-------|----------|-------|---|-------|-------|-------|---|-------|-------|-------|---|
D|-------|----------|-------|---|-------|----12-|-------|---|-------|-------|-------|---|
A|----12-|----------|----12-|---|----12-|-4-----|----12-|---|----12-|-------|----12-|---|
E|-4-----|-2--10--3-|-4-----|-2-|-4-----|-------|-4-----|-2-|-4-----|-2--10-|-4-----|-2-|
   1  +3   1  +3 4+   1  +3   1   1  +3   1  +3   1  +3   1   1  +3   1  +3   1  +3   1

G|-------|----------|-------|------0----|-------|-------|-------|---|
D|-------|----------|-------|---024---1-|-------|-------|-------|---|
A|----12-|----------|----12-|-----------|----12-|-------|----12-|---|
E|-4-----|-2--10--3-|-4-----|-4---------|-4-----|-2--10-|-4-----|-2-|
   1  +3   1  +3 4+   1  +3   1 2e+ 3 4   1  +3   1  +3   1  +3   1

|-------|-------|-------|---|-------|-------|-------|---|-------|-------|
|-------|----12-|-------|---|-------|-------|-------|---|-------|----12-|
|----12-|-4-----|----12-|---|----12-|-------|----12-|---|----12-|-4-----|
|-4-----|-------|-4-----|-2-|-4-----|-2--10-|-4-----|-2-|-4-----|-------|
  1  +3   1  +3   1  +3   1   1  +3   1  +3   1  +3   1   1  +3   1  +3
Comments