Conflict - Someday Soon Chords & Tabs

 

Someday Soon Chords & Tabs

Conflict Chords & Tabs

Version: 1 Type: Tab 0 ratings
1 star 2 stars 3 stars 4 stars 5 stars
comments

Someday Soon Tab

   
-----------------------------------------------------------------
Someday Soon - Conflict
-----------------------------------------------------------------
Tabbed by: Dillon
Email: Angelic_oioi_upstart@yahoo.com

Tuning:Standard

Intro is done with violins but can be done on guitar like this:
lead guitar:
e|-7-78-8--------------------------------------------------------|
B|--8--7--(repeat this as many times as needed)------------------|
G|---------------------------------------------------------------|
D|---------------------------------------------------------------|
A|---------------------------------------------------------------|
E|---------------------------------------------------------------|

Pause Here

First Verse:
Rythm Guitar only.
e|---------------------------------------------------------------|
B|---------------------------------------------------------------|
G|-444-----44-555-----55-----------------------------------------|
D|-444-555-44-555-444-55-(4 times)-------------------------------|
A|-222-555-22-333-444-33-----------------------------------------|
E|-----333--------222--------------------------------------------|

First Chorus:
Rythm Guitar only.
e|---------------------------------------------------------------|
B|---------------------------------------------------------------|
G|-77777777-77777777---------------------------------------------|
D|-77777777-77777777-(4 times)-----------------------------------|
A|-55555555-66666666---------------------------------------------|
E|---------------------------------------------------------------|

Second Verse:
Rythm guitar is the same as the first verse except
that the entire verse (rythm and lead) both last two verses with no
chorus in between. While the rythm guitar
plays the lead guitar plays this:
e|--57------57------57------5-7-8-10-12---------------------------|
B|-7--8-0--7--8-0--7--8-0--7-------------------------------------|
G|-----7-------7-------7-----------------------------------------|
D|---------------------------------------------------------------|
A|---------------------------------------------------------------|
E|---------------------------------------------------------------|
[ Tab from: http://www.guitartabs.cc/tabs/c/conflict/someday_soon_tab.html ]
Second Verse lead guitar continued:
e|---10-12----------10-12----------10-12----------10-12--10-12---|
B|-12-----13------12-----13------12-----13------12-----13--------|
G|----------12-9-----------12-9-----------12-9-------------------|
D|---------------------------------------------------------------|
A|---------------------------------------------------------------|
E|---------------------------------------------------------------|

Long Pause Here

Second Chorus:
Rythm guitar plays the same thing as the first chorus while the
lead guitar plays this:
e|----------15-17-18---------------------------------------------|
B|-15-16-19----------15-16---------------------------------------|
G|---------------------------------------------------------------|
D|---------------------------------------------------------------|
A|---------------------------------------------------------------|
E|---------------------------------------------------------------|

Bridge:
stroke down and immediately palm mute this after each stroke.
Rythm Guitar only.
e|---------------------------------------------------------------|
B|---------------------------------------------------------------|
G|-6x6x6---------------------------------------------------------|
D|-6x6x6-(play as many times as needed)--------------------------|
A|-4x4x4---------------------------------------------------------|
E|---------------------------------------------------------------|

Third Chorus:
Rythm Guitar only.
e|---------------------------------------------------------------|
B|---------------------------------------------------------------|
G|-7--8----------------------------------------------------------|
D|-7--8-(4 times)------------------------------------------------|
A|-5--6----------------------------------------------------------|
E|---------------------------------------------------------------|

The third verse is played the same as all the others on the rythm
guitar. There is no lead guitar here.

End:
Rythm Guitar only.
e|---------------------------------------------------------------|
B|---------------------------------------------------------------|
G|-77777778------------------------------------------------------|
D|-77777778------------------------------------------------------|
A|-55555556------------------------------------------------------|
E|---------------------------------------------------------------|

| / slide up
| \ slide down
| h hammer-on
| p pull-off
| ~ vibrato
| + harmonic
| x Mute note

#----------------------------------PLEASE NOTE---------------------------------#
#This file is the author's own work and represents their interpretation of the #
#song. You may only use this file for private study, scholarship, or research. #
#------------------------------------------------------------------------------#
Comments