Conflict - Bomb Chords & Tabs

 

Bomb Chords & Tabs

Conflict Chords & Tabs

Version: 1 Type: Tab 0 ratings
1 star 2 stars 3 stars 4 stars 5 stars
comments

Bomb Tab

   
-----------------------------------------------------------------
Bomb - Conflict
-----------------------------------------------------------------
Tabbed by: Dillon
Email: Angelic_oioi_upstart@yahoo.com

Tuning:Standard

Intro:
The rythm guitar plays the following.
e|---------------------------------------------------------------|
B|---------------------------------------------------------------|
G|---------------------------------------------------------------|
D|---------------------------------------------------------------|
A|-4-4-3-0--0-4-4-3-0--0-4-4-3-0--0-4-4-3-0----------------------|
E|---------------------------------------------------------------|

Intro Continued:
Then the lead guitar enters and plays the following along with the
rythm guitars origional pattern.
e|---------------------------------------------------------------|
B|-7-7--------7-7---------7-7---------7-7------7-7-------7*------|
G|-----7-4--4-----7--4--4-----7--4--4-----7--4-----7-4-4---------|
D|---------------------------------------------------------------|
A|----------------------------------------------*(bend the final-|
E|-----------------------------------------------7 up 1/2 step)--|

First Verse:
e|---------------------------------------------------------------|
B|---------------------------------------------------------------|
G|-111111111111-1010---------------------------------------------|
D|-111111111111-1010-12121212------------------------------------|
A|--9-9-9-9-9-9--8-8-12121212------------------------------------|
E|-------------------10101010------------------------------------|
[ Tab from: http://www.guitartabs.cc/tabs/c/conflict/bomb_tab.html ]
Bridge:
e|---------------------------------------------------------------|
B|---------------------------------------------------------------|
G|---------666666------------------------------------------------|
D|-222-444-666666------------------------------------------------|
A|-222-444-444444------------------------------------------------|
E|-000-222-------------------------------------------------------|

Second Verse:
e|---------------------------------------------------------------|
B|-77------------------------------------------------------------|
G|---7-44--------------------------------------------------------|
D|---------------------------------------------------------------|
A|---------------------------------------------------------------|
E|---------------------------------------------------------------|

Last Chord:
e|---------------------------------------------------------------|
B|---------------------------------------------------------------|
G|---------------------------------------------------------------|
D|-12------------------------------------------------------------|
A|-12------------------------------------------------------------|
E|-10------------------------------------------------------------|

| / slide up
| \ slide down
| h hammer-on
| p pull-off
| ~ vibrato
| + harmonic
| x Mute note

#----------------------------------PLEASE NOTE---------------------------------#
#This file is the author's own work and represents their interpretation of the #
#song. You may only use this file for private study, scholarship, or research. #
#------------------------------------------------------------------------------#
Comments