Conception - Gethsemane Chords & Tabs

 

Gethsemane Chords & Tabs

Conception Chords & Tabs

Version: 2 Type: Bass Tab 0 ratings
1 star 2 stars 3 stars 4 stars 5 stars
comments

Gethsemane Bass Tab

   
Artist: Conception
Title: Gethsemane
Album: Flow
 
 
 
BASS TAB
 
Tune down 1/2 step (Eb,Ab,Db,Gb)
 
Intro
Gb|---------------------------------~
Db|---------------------------------~
Ab|---------------------------------~  repeat as many times needed
Eb|-x-x-x-x-x-x-x-x-x-x-x-x-x-x-x-x-~
 

Chorus                 x3
Gb|-------------------|
Db|-------------------|
Ab|-------------------|
Eb|-0----0----0-x-3-5-|
 
Gb|---------------------------|
Db|---------------------------|
Ab|---------------------------|
Eb|-0----0----0-x-3-5-6-3(\2)-|
                       x3
Gb|-------------------|
Db|-------------------|
Ab|-------------------|
Eb|-0----0----0-x-3-5-|
 
Gb|-------------------------|
Db|-------------------------|
Ab|-------------------------|
Eb|-0----0----0-x-3-5-5-(5)-|
 
[ Tab from: http://www.guitartabs.cc/tabs/c/conception/gethsemane_btab_ver_2.html ]
Verse1             x19
Gb|---------------|
Db|-------------2-|
Ab|---------------|
Eb|-0-0-0---0-0---|
 
Gb|---------------------|
Db|-------------2-4-4-2-|
Ab|---------------------|
Eb|-0-0-0---0-0---------|
 

Verse2             x17
Gb|---------------|
Db|-------------2-|
Ab|---------------|
Eb|-0-0-0---0-0---|
 
Gb|---------------------|
Db|-------------2-4-4-4-|
Ab|---------------------|
Eb|-0-0-0---0-0---------|
 

Interlude
Gb|------------------------------|
Db|------------------------------|
Ab|-------------------------5*---|
Eb|-3*---(7-5-3-)0*---(5-5-)-----|
 
Gb|--------------|
Db|--------------|
Ab|-5-2-5-7------|
Eb|---------0*---|
 
Gb|------------------------------------|
Db|------------------------------------|
Ab|------------------------------------|
Eb|-3*---(7-5-3-)0*---3-3-5-7-5-3-3*---|
 
Gb|------------------------------------------|
Db|------------------------------------------|
Ab|------------------------5*---3*---5*---7*-|
Eb|-3-5-3-0*---2-2-3-5-3-2-------------------|
 
 
 

structure:
Intro
Chorus
Verse1
Chorus
Verse2
Chorus
Interlude
Chorus x2
 
 
 
* = let the note ring
Comments