Comrade - Pickpocket Chords & Tabs

 

Pickpocket Chords & Tabs

Comrade Chords & Tabs

Version: 1 Type: Tab 0 ratings
1 star 2 stars 3 stars 4 stars 5 stars
comments

Pickpocket Tab

Song: Pickpocket
Artist: Comrade
Album: Red no. 44




Verse Riff:

E-------10----------8-----------8-------7------------------------
B-------8-----------8-----------7-------6------------------------
G-------8-----------8-----------8-------7------------------------
D---10--10--9-8-7---7-------6---6-------5------------------------
A----------------------------------------------------------------
E----------------------------------------------------------------
    1     2     1     2     1     2     1     2



Chorus Riff: 
[ Tab from: http://www.guitartabs.cc/tabs/c/comrade/pickpocket_tab.html ]
E---2-----------------------2p0---------------------2------------
B---1-----------1-----0-----0-----------------------1------------
G---2-----------2-----2-----0-----------------------2------------
D---2-----------1-----1-----2-----------------------2------------
A---0-----------2-----2-----2-----------------------0------------
E---------------------------0------------------------------------
    1     2     1     2     1     2     1     2     1     2     
  
E---------------2p0---------------------2------------------------
B---1-----0-----0-----------------------1-----------1-----0------
G---2-----2-----0-----------------------2-----------2-----2------
D---1-----1-----2-----------------------2-----------1-----1------
A---2-----2-----2-----------------------0-----------2-----2------
E---------------0------------------------------------------------
    1     2     1     2     1     2     1     2     1     2

E---4----4-----3----------------------------------------------------
B---4----4-----3----------------------------------------------------
G---5----5-----4----------------------------------------------------
D---4----4-----3----------------------------------------------------
A---6----6-----5----------------------------------------------------
E---4----4-----3----------------------------------------------------
    1     2     1     2     1     2

Verse 8x
Chorus 1x
Verse 8x
Chorus 1x
Verse 8x
Chorus 1x
Verse 8x – guitar solo over Cm, or C blues
Chorus 1x – guitar solo over Cm, or C blues
Verse 4x

-tabbed by wickedbrethren54
Comments