Comrade - Just Chords & Tabs

 

Just Chords & Tabs

Comrade Chords & Tabs

Version: 1 Type: Chords 0 ratings
1 star 2 stars 3 stars 4 stars 5 stars
comments

Just Chords

Song: Just
Artist: Comrade
Album: Red no. 44


This part is played by the rhythm guitar for the first part of the 
song, and I think the bass doubles it also

E----------------------------------------------------------------
B----------------------------------------------------------------
G--------------------------------5-5-5--4------------------------
D------------------3-3-3--4-4-4----------------8-8--5--8-8-8-----
A----3-3-3--5-5-5------------------------------8-8--5--8-8-8-----
D----------------------------------------------8-8--5--8-8-8-----

This part is the lead guitar part, and follows the same rhythm as the 
other guitar

E----1-1-1--2-2-2--1-1-1--2-2-2--1-1-1--2------------------------
B----3-3-3--3-3-3--3-3-3--3-3-3--3-3-3--3------------------------                           
G----2-2-2--2-2-2--2-2-2--2-2-2--2-2-2--2------------------------
D----------------------------------------------8-8--5--8-8-8-----
A----------------------------------------------8-8--5--8-8-8-----
D----------------------------------------------8-8--5--8-8-8-....

[ Tab from: http://www.guitartabs.cc/tabs/c/comrade/just_crd.html ]
        This is the part of the song where it gets slow, and the lead 
guitar just solos like crazy over an Emaj scale.  This is the rhythm 
guitar part, and you should just repeat it over and over again

E----------------------------------------------------------------
B----------------------------------------------------------------
G----------------------------------------------------------------
D-6-6-6-6--2-2-2-4--6-6-6-6--2-2-2-4--6-6-6-6--2-2-2-4--6-6-6-6--
A-6-6-6-6--2-2-2-4--6-6-6-6--2-2-2-4--6-6-6-6--2-2-2-4--6-6-6-6--
D-6-6-6-6--2-2-2-4--6-6-6-6--2-2-2-4--6-6-6-6--2-2-2-4--6-6-6-6--


At the very end, everyone ends on this chord, and then it fades out

E--4-------------------------------------------------------------
B--5-------------------------------------------------------------
G--4-------------------------------------------------------------
D--6-------------------------------------------------------------
A--4---------2---------------------------------------------------
D---------4-----2------------------------------------------------
	

-tabbed by wickedbrethren54


Comments