Common - Be Chords & Tabs

 

Be Chords & Tabs

Common Chords & Tabs

Version: 1 Type: Bass Tab 1 rating
1 star 2 stars 3 stars 4 stars 5 stars
comments

Be Bass Tab

Song: Be
Artist: Common
File Type: Bass Tab

Intro- (0:02)
G--------------------------------------------------------------------
D--------------------------------------------------------------------
A-----6-5---10--------8----5-----13h12-10----------------------------
E------------------8---------------------------6-8-10-----6-6-8------ x1

Verse- (0:22)  
G----------------------- 
D-------8-5------7-3----
A-----6-----6--5-----5--
E-----------------------  x11

(0:50)
G----------------------
D-------8---8---8---8--
A-----6---6---6---6----
E---------------------- x1

Verse- (0:53)
G----------------------- 
D-------8-5------7-3----
A-----6-----6--5-----5--
E----------------------- x7

(1:10)
G----------------------
D-------8---8---8---8--
A-----6---6---6---6----
E---------------------- x1

Common comes in...
[ Tab from: http://www.guitartabs.cc/tabs/c/common/be_btab.html ]
Verse- (1:13)
G----------------------- 
D-------8-5------7-3----
A-----6-----6--5-----5--
E----------------------- x7

(1:31)
G----------------------
D-------8---8---8---8--
A-----6---6---6---6----
E---------------------- x1

Verse- (1:34)
G----------------------- 
D-------8-5------7-3----
A-----6-----6--5-----5--
E----------------------- x4 

Solo- (1:44)
G---------------------------------------------------------------------------------------------------
D-------8-5------7-3-------8-5------7-3-------8-5------7-3-------8-5------7-3--------8---8---8---8---
A-----6-----6--5-----5---6-----6--5-----5---6-----6--5-----5---6-----6--5-----5---6---6---6---6-----
E--------------------------------------------------------------------------------------------------- x1

Verse- (1:54)
G----------------------- 
D-------8-5------7-3----
A-----6-----6--5-----5--
E----------------------- x7

(2:12)
G----------------------
D-------8---8---8---8--
A-----6---6---6---6----
E---------------------- x1

Bass stops... (2:15)



Comments