Colt 45 - Left Us Behind Chords & Tabs

 

Left Us Behind Chords & Tabs

Colt 45 Chords & Tabs

Version: 1 Type: Tab 3 ratings
1 star 2 stars 3 stars 4 stars 5 stars
comments

Left Us Behind Tab

   
Song:Left Us Behind
Artist:Colt 45

Verse 10X
E-3-3---3-5-5---5--7-7---7-5-5---5
B-3---3---5---5----7---7---5---5--
G---------------------------------
D---------------------------------
A---------------------------------
E---------------------------------


E-3-5-3-5
B-3-5-3-5
G--------
D--------
A--------
E--------

Chorus 8X
E-3-3--5-5--3-3--5-5-5-5-5
B-3-3--5-5--3-3--5-5-5-5-5
G-------------------------
D-------------------------
A-------------------------
E-------------------------


E-3-5-3-5
B-3-5-3-5
G--------
D--------
A--------
E--------

Verse 10x
E-3-3---3-5-5---5--7-7---7-5-5---5
B-3---3---5---5----7---7---5---5--
G---------------------------------
D---------------------------------
A---------------------------------
E---------------------------------


E-3-5-3-5
B-3-5-3-5
G--------
D--------
A--------
E--------

Chorus 8X
E-3-3--5-5--3-3--5-5-5-5-5
B-3-3--5-5--3-3--5-5-5-5-5
G-------------------------
D-------------------------
A-------------------------
E-------------------------

E-3-5-3-5
B-3-5-3-5
G--------
D--------
A--------
E--------
[ Tab from: http://www.guitartabs.cc/tabs/c/colt_45/left_us_behind_tab.html ]
Verse 10X
E-3-3---3-5-5---5--7-7---7-5-5---5
B-3---3---5---5----7---7---5---5--
G---------------------------------
D---------------------------------
A---------------------------------
E---------------------------------

E-3-5-3-5
B-3-5-3-5
G--------
D--------
A--------
E--------


Chorus 8X
E-3-3--5-5--3-3--5-5-5-5-5
B-3-3--5-5--3-3--5-5-5-5-5
G-------------------------
D-------------------------
A-------------------------
E-------------------------


E-3-5-3-5
B-3-5-3-5
G--------
D--------
A--------
E--------

Verse 10X
E-3-3---3-5-5---5--7-7---7-5-5---5
B-3---3---5---5----7---7---5---5--
G---------------------------------
D---------------------------------
A---------------------------------
E---------------------------------

E-3-5-3-5
B-3-5-3-5
G--------
D--------
A--------
E--------

Chorus 8X
E-3-3--5-5--3-3--5-5-5-5-5
B-3-3--5-5--3-3--5-5-5-5-5
G-------------------------
D-------------------------
A-------------------------
E-------------------------

E-3-5-3-5
B-3-5-3-5
G--------
D--------
A--------
E--------

Chorus 8X
E-3-3--5-5--3-3--5-5-5-5-5
B-3-3--5-5--3-3--5-5-5-5-5
G-------------------------
D-------------------------
A-------------------------
E-------------------------

E-3-5-3-5
B-3-5-3-5
G--------
D--------
A--------
E--------

There you go, hope you like it.  Have fun with it.
Comments