Colors - Reggae Song Chords & Tabs

 

Reggae Song Chords & Tabs

Colors Chords & Tabs

Version: 1 Type: Tab 0 ratings
1 star 2 stars 3 stars 4 stars 5 stars
comments

Reggae Song Tab

   
Colors
Reggea Song
Submitted by: Derek Smith

Okay I know for a fact that this isn't right. But Its the closest
and only thing that I know of on the net so sorry.

Capo 3rd fret

Riff 1
e-----3-3---3------2-2---2-0-------------------2-2---|
b-----3-3---3------3-3---3-0-----1-1--1-0------3-3---|
g-----0-0---0----2-2-2---2-0-----2-2--2-0----2-2-2---|
d--------------0---0-0-0-------2-2-2--2-0--0---0-0---|
a---2------------------------0------0----------------|
e-3-------3------------------------------------------|
[ Tab from: http://www.guitartabs.cc/tabs/c/colors/reggae_song_tab.html ]
Riff 2
e-----------  ------------|
b-----------  ------------|
g-----------or------------|
d-----------  ------------|
a-------0-3-  ---------3--|
e-3-3-3-----  -3-3-3-5----|


Chorus:
G, D, Em, Am, D

Bridge:
Cadd9, D, Em, Am, D  ---------2----|
                     -------3-3----|
                     -----2---2----|
                     ---0-----0----|
                     -0------------|
                     --------------|
Play with the chords during the verses Have Fun with it. Oh and in
some of the verses the first riff stops early. So its so much fun to play
it have fun. During the certain part of the song Play Riff 2 right
after one.
Any questions or if your confused email me at Moonface82984@hotmail.com or
Derek_the_Magnificent@yahoo.com.
Comments