Colorfinger - Static Chords & Tabs

 

Static Chords & Tabs

Colorfinger Chords & Tabs

Version: 1 Type: Bass Tab 0 ratings
1 star 2 stars 3 stars 4 stars 5 stars
comments

Static Bass Tab

--------------------------------
--------------------------------
--------------------------------
-5-5-5-5-5-5-6-6-6-6-6-6-6-6----
                                               
--------------------------------
--------------------------------
--------------------------------
-0-0-0-0-0-0-0-0-0-0-0-0-0-0-0--

--------------------------------
--------------------------------
--------------------------------
-5-5-5-5-5-5-5-5-6-6-6-6-6-6-6--

[ Tab from: http://www.guitartabs.cc/tabs/c/colorfinger/static_btab.html ]
--------------------------------
--------------------------------
-------------5-5-5-5-5-5-5------
-3-3-3-3-3-3--------------------

chorus
--------------------------------
--------------------------------
--------------------------------
-0-0-0-0-2h32h32h3--------------       X2

-----------------------------------
-----------------------------------
-----------------3-3-3-3-5-5-5-5---
-3-3-3-3-5-5-5-5-------------------

play all that ridiculasly fast
Comments