Collins Albert - Too Tired Chords & Tabs

 

Too Tired Chords & Tabs

Collins Albert Chords & Tabs

Version: 1 Type: Tab 1 rating
1 star 2 stars 3 stars 4 stars 5 stars
comments

Too Tired Tab

#----------------------------------PLEASE NOTE--------------------------------#
#This file is the author's own work and represents their interpretation of the#
#song. You may only use this file for private study, scholarship, or research.#
#-----------------------------------------------------------------------------#
#-- File created with Instab - http://www.pconline.com/~smcarey/instab.html --#
#-----------------------------------------------------------------------------#

Author/Artist: Albert Collins
Title: Too Tired
Album: Ice Pickin'
Transcribed by: tubescream8
Email: kturco@insightbb.com

email me if you you see anything wrong
[ Tab from: http://www.guitartabs.cc/tabs/c/collins_albert/too_tired_tab.html ]
-5------------------|----------------|----------------|------------------8----
----8-5-------------|----------------|/10-/10-/10-/10-|-/10-/10-/10-8-10------
--------8-7-5---5h6-|------------2x-*|----------------|-----------------------
--------------7-----|---------------*|----------------|-----------------------
--------------------|----------------|----------------|-----------------------
--------------------|----------------|----------------|-----------------------
                                                                              

-10b12--8-8--------|----5--------------|-------------------|------------------
------------10-----|-------8-5---------|-------------------|------------------
-------------------|-----------8-7-5---|-5h6-5-6-----------|-2-2---5h6-----7b-
-------------------|-----------------7-|---------7p5-----4-|-----5-----7------
-------------------|-------------------|-------------7-----|------------------
-------------------|-------------------|-------------------|------------------
                                                                              

--------------------|----5-5--------|--------------------|--------------------
--------------------|-----------5---|------------------5-|--------------------
---7--5-------------|-------------7-|-5------------5h7---|-5------------------
--------7-5-5-4-----|---------------|---7-5--------------|----7p5-7-----------
--------------------|---------------|--------------------|----------7---------
--------------------|---------------|--------------------|--------------------
                                                                              

Comments