Collin Raye - Love Me Chords & Tabs

 

Love Me Chords & Tabs

Collin Raye Chords & Tabs

Version: 2 Type: Tab 0 ratings
1 star 2 stars 3 stars 4 stars 5 stars
comments

Love Me Tab

   
-------------------------------------------------------------------------------
			     Love Me - Colin Raye
-------------------------------------------------------------------------------
Tabbed by: Brian
Tuning: Standard

Intro.
    C       G(on B)  Am       G
e|--0----------------------------------|
B|----3-1-3----------1-0-1-1-----------|
G|--------------0-----------------0----|
D|------------0---0-------------0---0--|
A|--3-------2--------0-----------------|
E|----------------------------3--------|

    Dm       G          C
e|--1-p0--------------------1-------0--|
B|-------3-1-0-----1-1------1------1---|
G|--2-p0--------0--0-0------0-----0----|
D|--0----3-2-0------------2------2-----|
A|----------------------3-----3--------|
E|-----------3-------------------------|

Verse
    C          G(on B) Am     F  
e|----------0----------------------------|
B|--1-1---3--------3---1-----------------|
G|-------------------0-----0--2-----2----|
D|------2--------0-------2--------3---3--|
A|----3--------2-------0--------3--------|
E|----------------------------1----------|

    F        G       C
e|---------------------------------------|
B|-------------------------1--------1----|
G|--2--------------------0--------0------|
D|----3---3--0-----0---2------0h2-----2--|
A|------3------0-3---3-------------------|
E|--1--------3---------------------------|

    C        G(on B)  Am
e|--------0-----------------0-------0--|
B|--1---3--------3----1---1-----1-3----|
G|-----------------0----------2--------|
D|----2--------0--------2--------------|
A|--3--------2--------0----------------|
E|-------------------------------------|

    Dm                G
e|--1----0---------------------3------|
B|---------3---3--1-3------------3----|
G|-----2-----2---------------0-----0--|
D|--0----------------------0----------|
A|-----------------------2------------|
E|---------------------3--------------|
[ Tab from: http://www.guitartabs.cc/tabs/c/collin_raye/love_me_tab_ver_2.html ]
    C          G(on B) Am     F  
e|----------0----------------------------|
B|--1-1---3--------3---1-----------------|
G|-------------------0-----0--2-----2----|
D|------2--------0-------2--------3---3--|
A|----3--------2-------0--------3--------|
E|----------------------------1----------|

    F        G       C
e|---------------------------------------|
B|-------------------------1--------1----|
G|--2--------------------0--------0------|
D|----3---3--0-----0---2------0h2-----2--|
A|------3------0-3---3-------------------|
E|--1--------3---------------------------|

    C       G(on B) Am     F
e|--------0-------------------|
B|--1---3-------3---1---------|
G|----------------0------2-2--|
D|----2-------0-------2-------|
A|--3-------2-------0---------|
E|-------------------------1--|

      G           C
e|------0-------------1--------|
B|--------3--1-3------1-----1--|
G|--2-0---------------0----0---|
D|------------------2-----2----|
A|----------------3------3-----|
E|----3------------------------|

Chorus. Just chords, can't be bothered to tab the whole thing. too long

F G C
F G C
F G Am Dm
F G C
F G C
then..(last part of chours)
       F      G         E     Am
e|----------------------------0--|
B|-------0-1--3--1-0------0-3----|
G|--0--2-------------2--1--------|
D|-------------------------------|
A|----------------------------0--|
E|-----1------3---------0--------|

         Am       G
e|--0---------------------|
B|----3--1-----------3-0--|
G|---------2-2--2--0------|
D|------------------------|
A|-------0----------------|
E|-----------------3------|

    C       G(on B)  Am       G
e|--0----------------------------------|
B|----3-1-3----------1-0-1-1-----------|
G|--------------0-----------------0----|
D|------------0---0-------------0---0--|
A|--3-------2--------0-----------------|
E|----------------------------3--------|

    Dm       G          C
e|--1-p0--------------------1-------0--|
B|-------3-1-0-----1-1------1------1---|
G|--2-p0--------0--0-0------0-----0----|
D|--0----3-2-0------------2------2-----|
A|----------------------3-----3--------|
E|-----------3-------------------------|

then the verse and chorus a few more times over again..
the song ends with the intro.

===============================================================================
Comments