Collective Soul - Why Pt 2 Chords & Tabs

 

Why Pt 2 Chords & Tabs

Collective Soul Chords & Tabs

Version: 1 Type: Tab 0 ratings
1 star 2 stars 3 stars 4 stars 5 stars
comments

Why Pt 2 Tab

Ive never done anything like this before but I had a look for the solo for why pt2 and not 
one person had bothered to write it down so I had to do it myself, if u cant figure out how 
many times each note is played or when to use the wah u shouldn’t be playing it. The 
little x is a muted strum. 


E/---------------------------------------------------------------
B/--------------------------------------------------------------
G/--------5-6-x---------5-6-x---------5-6-x-----------6-x---
D/------3--------------3-------------3--------------3-x------
A/-3-4-----------3-4-----------3-4------------3-4----------
E/--------------------------------------------------------------

[ Tab from: http://www.guitartabs.cc/tabs/c/collective_soul/why_pt_2_tab.html ]
E/---------------------------------------------------------------
B/--------------------------------------------------------------
G/--------5-6-x---------5-6-x-5-6-5-6-5-6-5-6-8-8-------
D/------3--------------3---------------------------------------
A/-3-4-----------3-4------------------------------------------
E/--------------------------------------------------------------

This next bit is just octaves being strummed with the wah 

E/-----------------------
B/----------------------
G/-10----11----13----
D/----------------------
A/-8------9-----11---
E/----------------------

And for the last bit just play these notes once each 

E/--------------
B/---------14--
G/-10-11-----
D/------------
A/-----------
E/------------

And there we have it, any questions?
david_j_simpson@hotmail.com

Comments