Collective Soul - Why Part 2 Chords & Tabs

 

Why Part 2 Chords & Tabs

Collective Soul Chords & Tabs

Version: 1 Type: Tab 0 ratings
1 star 2 stars 3 stars 4 stars 5 stars
comments

Why Part 2 Tab

   
collective soul,why pt.2.
Tabbed by prayogo wicaksono,prayogowicaksono@yahoo.com.
  
#----------------------------------PLEASE NOTE---------------------------------#
#This file is the author's own work and represents their interpretation of the #
#song. You may only use this file for private study, scholarship, or research. #
#------------------------------------------------------------------------------##

Author/Artist: Collective Soul
Title: Why pt.2
Album: Blender
Tabbed by: Prayogo Wicaksono
Email: prayogowicaksono@yahoo.com
http://www.geocities.com/prayogowicaksono

This is a cool song off of collective soul's new album. It's pretty
easy to play so you probably won't have any trouble with it but if
you do feel free to e-mail me with any comments, Q's, additions, or
corrections you have.

I taped this and tried to work it out and here is my interpretation of "why pt.2".
for rhythm guitar, TUNE DOWN 1 1/2 step. 
PLEASE COME BACK SOON OR JOIN MY MAILING LIST 
SO I CAN TELL YOU IF I'VE UPDATED MY SITE.
You can get my TAB's at my web page -
http://www.geocities.com/prayogowicaksono

Enjoy!

-- Prayogo

LEGEND:

h: hammer on
p: pull off
b: bend
/: slide to
\: slide back

to play this song, use power chord
you will hear C# chord because for rhythm guitar TUNE DOWN 1 1/2 Step.

INTRO:
-|-------------|
-|-------------|
-|-------------|
-|------2------|
-|------2------|
-|------0------|

in the air i'm tasting your perfection
forgive me dear for my misdirection
[ Tab from: http://www.guitartabs.cc/tabs/c/collective_soul/why_part_2_tab.html ]
   C#m              A                   E
as i crawl beneath this torture you adore
   C#m              A                   E
i fall face to face with my scars you've ignored

REFF:
          C#m  A                   E
so tell me why it don't feel the same
          C#m  A                   E
tell me why i've got to fell this way
          C#m  A                   E
yeah you leave, you're gone and i'm left here with the blame
          C#m  A                   E
so tell me why it don't feel the same

LEAD GUITAR:(your guitar set to E tune and use wah pedal)
--|-----------------------------------------------------------------------|--
--|-----------------------------------------------------------------------|--
--|---------5/6-------5/6--5h6-5h6-5h6---8---8/10---10/11---13--13/5--11--|--
--|-------3---------3---------3---3---------------------------------------|--
--|---3/4-------3/4-------------------------------------------------------|--
--|-----------------------------------------------------------------------|--


-|-------------|
-|-------------|
-|-------------|
-|------2------|
-|------2------|
-|------0------|

all my props i swear they were in order
even with the warnings of your thunder

   C#m              A                   E
now i pause to let my silence scream tonight
          C#m       A                   E
while you roam like a serpent satellite

BACK TO REFF

after this play it until the end
-|-------------|
-|-------------|
-|-------------|
-|------2------|
-|------2------|
-|------0------|


Jakarta, December 31th 2000 , 11:55 AM

:: Ultimate Guitar Archive :: 
http://www.ultimate-guitar.com 



Comments