Collective Soul - Where The River Flows Chords & Tabs

 

Where The River Flows Chords & Tabs

Collective Soul Chords & Tabs

Version: 3 Type: Tab 0 ratings
1 star 2 stars 3 stars 4 stars 5 stars
comments

Where The River Flows Tab

   
|------------Collective Soul-Where the River Flows-----------------|


Tunging is (C,G,C,F,A,D)
(Or else use dropped D of you're too lazy to tune the rest)

I believe all the other tabs were close but I took the liberty to listen
to the song carefully and tab it out right. Not to dog on the other guys though.
By guitarfreakjeff
INTRO/CHORUS
D|------------------------------|
A|------------------------------|
F|------------------------------|
C|-0--x--0-2-0-3--x--0-2-0-3-3--|
G|-0--x--0-2-0-3--x--0-2-0-3-3--|
C|-0--x--0-2-0-3--x--0-2-0-3-3--|

[ Tab from: http://www.guitartabs.cc/tabs/c/collective_soul/where_the_river_flows_tab_ver_3.html ]
VERSE ONE
D|------------------------------------------------------------------|
A|------------------------------------------------------------------|
F|------------------------------------------------------------------|
C|-5-5-5-5-5-5-5-5-5-5-5-5-5-5-5-5-5-5-5-5-5-5-5-5-5-5-5-5-5-5-0-5-3|
G|-5-5-5-5-5-5-5-5-5-5-5-5-5-5-5-5-5-5-5-5-5-5-5-5-5-5-5-5-5-5-0-5-3|
C|-5-5-5-5-5-5-5-5-5-5-5-5-5-5-5-5-5-5-5-5-5-5-5-5-5-5-5-5-5-5-0-5-3|


VERSE TWO
D|-------------------------------------------------------------------|
A|-------------------------------------------------------------------|
F|-------------------------------------------------------------------|
C|-7-7-7-7-7-7-7-7-7-7-7-7-7-7-7-0-5-5-5-5-5-5-5-5-5-5-5-0-3-0-3-0-3-|
G|-7-7-7-7-7-7-7-7-7-7-7-7-7-7-7-0-5-5-5-5-5-5-5-5-5-5-5-0-3-0-3-0-3-|
C|-7-7-7-7-7-7-7-7-7-7-7-7-7-7-7-0-5-5-5-5-5-5-5-5-5-5-5-0-3-0-3-0-3-|

On the Verses the number of times you hit the chord isnt correct but you get
the idea. Just listen to the song. 

Im not sure about the solo just yet. The other people's tabs for the solo
might be correct but so far this looks like the right one.
Comments