Collective Soul - Where The River Flows Chords & Tabs

 

Where The River Flows Chords & Tabs

Collective Soul Chords & Tabs

Version: 2 Type: Tab 0 ratings
1 star 2 stars 3 stars 4 stars 5 stars
comments

Where The River Flows Tab

   
-------------------------------------------------------------------------------
			     WHERE THE RIVER FLOWS - collective soul
-------------------------------------------------------------------------------


By: J.J. Nyari

Tuning (C,G,C,F,A,D)
(Dropped d will also work)

I looked at all of the tabs for this song and they all where wrong and I decided to make my own and i hope this is what its suposed to be.

INTRO/CHORUS
D|------------------------------|
A|------------------------------|
F|------------------------------|
C|-0--x--0-2-0-3--x--0-2-0-3-3--|
G|-0--x--0-2-0-3--x--0-2-0-3-3--|
C|-0--x--0-2-0-3--x--0-2-0-3-3--|

[ Tab from: http://www.guitartabs.cc/tabs/c/collective_soul/where_the_river_flows_tab_ver_2.html ]
VERSE ONE
D|------------------------------------------------------------------|
A|------------------------------------------------------------------|
F|------------------------------------------------------------------|
C|-7-7-7-7-7-7-7-7-7-7-7-7-7-7-7-7-7-7-7-7-7-7-7-7-7-7-7-7-7-7-7-7-|
G|-7-7-7-7-7-7-7-7-7-7-7-7-7-7-7-7-7-7-7-7-7-7-7-7-7-7-7-7-7-7-7-7-|
C|-7-7-7-7-7-7-7-7-7-7-7-7-7-7-7-7-7-7-7-7-7-7-7-7-7-7-7-7-7-7-7-7-|


VERSE TWO
D|-------------------------------------------------------------------|
A|-------------------------------------------------------------------|
F|-------------------------------------------------------------------|
C|-7-7-7-7-7-7-7-7-7-7-7-7-7-7-7-7-5-5-5-5-5-5-5-5-5-5-5-5-5-5-5-5--|
G|-7-7-7-7-7-7-7-7-7-7-7-7-7-7-7-7-5-5-5-5-5-5-5-5-5-5-5-5-5-5-5-5--|
C|-7-7-7-7-7-7-7-7-7-7-7-7-7-7-7-7-5-5-5-5-5-5-5-5-5-5-5-5-5-5-5-5--|

SOLO
D|-------------------------------------------|
A|-------------------------------------------|
F|-------------------------------------------|
C|-------------------------------------7-----|
G|7--5--5-5-5-5-5-5--7--5--8--5--7--5-----5--|
C|-------------------------------------------|x5(I think)


D|----------------------------------------------|
A|----------------------------------------------|
F|----------------------------------------7-----|
C|--7--5---5-5-5-5-5-7--5--8--7--5--7--5----5---|
G|----------------------------------------------|
C|----------------------------------------------|

There you go A kick ass song by collective soul and Im pretty sure it is 100% corect well maybe 98%
Comments