Collective Soul - Where The River Flows Chords & Tabs

 

Where The River Flows Chords & Tabs

Collective Soul Chords & Tabs

Version: 1 Type: Bass Tab 0 ratings
1 star 2 stars 3 stars 4 stars 5 stars
comments

Where The River Flows Bass Tab

   
Collective Soul - Where the River flows

Bass tab 

tabbed by Rabola


The only bass tab for this sweet cut that can be found
on the internet is shit terrible. I thought I'd remedy the situation 
with this tab. It's probably not 100% accurate, but it's better than 
shit terrible. I assure you.

Drop low E to D and then drop all strings a full step 
(or not, it's all on low C)

low to high: C,G,C,F

Intro/Main Riff

|----------------------------|
|----------------------------| 4x
|----------------------------|
|-0--x-0-2-0-3---0-2-0-3--3--|


Verse 

|-----------------------------------|
|-----------------------------------|
|-----------------------------------|
|-5-5-5-5-5-5-5-5-5-5-5-5-5-5-5-5---|

|-----------------------------------|
|-----------------------------------|
|-----------------------------------|
|-5-5-5-5-5-5-5-5-5-5-5-5-5-5h7-3---|


- Intro 2x

- Verse 1x

- Intro 2x


Chorus (sort of)
[ Tab from: http://www.guitartabs.cc/tabs/c/collective_soul/where_the_river_flows_btab.html ]
|---------------------------------|-----------------------------------|
|---------------------------------|-----------------------------------|
|---------------------------------|-----------------------------------|
|-7-7-7-7-7-7-7-7-7-7-7-7-7-7-7-7-|-5-5-5-5-5-5-5-5-5-5-5-5-5-5-5-5---|

|---------------------------------|-----------------------------------|
|---------------------------------|-----------------------------------|
|---------------------------------|-----------------------------------|
|-7-7-7-7-7-7-7-7-7-7-7-7-7-7-7-7-|-5-5-5-5-5-5-5-5-5-5-5-5-5-5h7-3---|


- Intro 2x

- Verse 1x

- Intro 2x

- Verse 1x

- Intro 2x

- Chorus 1x

- Intro 2x


Solo

(play quickly)
|-----------------------|
|-----------------------| 4x
|-----------------------|
|-2-0-0--0-2-0-0-3-0-0--|

|-----------------------|
|-----------------------| 2x
|-----------------------|
|-5-3-3--3-5-3-3-6-3-3--|

|-----------------------|
|-----------------------| 2x
|-----------------------|
|-2-0-0--0-2-0-0-3-0-0--|


- Intro 2x

- Verse 1x

- Intro 2x

- Verse 1x

- Intro 2x

- Chorus 2x

- Intro 2x

Then...
|----------------------|
|----------------------|
|----------------------|
|-0--x-0-2-0-3---------|

That was easy, huh? Very simple, but a great heavy tune none the less.
This is an old song, but if you use this, mail me and tell me what ya
thought....or don't, I don't care.

animadenoctum@hotmail.com
Comments