Collective Soul - When The Water Falls Chords & Tabs

 

When The Water Falls Chords & Tabs

Collective Soul Chords & Tabs

Version: 2 Type: Tab 0 ratings
1 star 2 stars 3 stars 4 stars 5 stars
comments

When The Water Falls Tab

   
                      		When The Water Falls

This song is very beautifully constructed in terms of the chords, as always with
Collective Soul, simple yet Beautiful.  There was only one other tab and it wasn't
much good so I thought I'd do it since it is my favorite song.

\ Slide down
/Slide up
h hammer on
p pull off

Guitar 1
Intro Repeat 2 times

E--------------------------  |
B--------------------------  |
G---1-2----2-1------2------  |
D-2-------2-----2-----/4---4 |
A--------0--------0------0-- |
E--------------------------- |

Intro part 2                           Change smoothly to verse guitar
                                                Verse
E---------------------------------|-----------------------------------|
B---------------------------------|-----------------------------------|
G---1-2-----2-1-----2--------4h6p4|2-1-2 -----2-1-----2--------4h6p4--| x5
D-2-------2-----2-----/4---4------|---------2-----2-----/4---4--------|
A--------0--------0------0--------|-------0---------0------0----------|
E---------------------------------|-----------------------------------|

      Pre-Chorus/Chorus Chords
[ Tab from: http://www.guitartabs.cc/tabs/c/collective_soul/when_the_water_falls_tab_ver_2.html ]
           A sus2    A/G#6    F#6sus2     B6sus4
E -------0-----------0---------0------------ 4-|
B -------5-----------5---------3------------ 5-|
G -------6-----------4---------2-------------4-|
D -------7-----------6---------4-------------x-|
A -------0-----------x---------x-------------x-|
E -------x-----------x---------x-------------x-|

Pre-chorus (guitar 1)
E----------------------------------------------|
B----5----5----5---5----3-----3----3----3------|
G----------------------------------------------|
D-7---7-----6---6----4----4-----4----4---------|
A----------------------------------------------|
E----------------------------------------------|
Pre-chorus(guitar 2)
A sus2  A/G#6  F#6sus2

Chorus

Guitar 1
E----------------------------4-5-|
B-----5------5-------3-----5-----|
G---6--6---4--4---2----2-4-------|
D-7------6------4----------------|  x4
A--------------------------------|
E--------------------------------|

Guitar 2
Asus2   A/G#6    F#6sus2  B6sus4  x4


SOLO TIME BABY

E-----5-7-5----5-5-5-5-5/7-5-4-4-5p4------------5-7-5--/9-9-9-9-99-/10-9-7-7-|
B-/7---------7------------------------5-5-5-5-/7------7----------------------|
G----------------------------------------------------------------------------|
D----------------------------------------------------------------------------|
A----------------------------------------------------------------------------|
E----------------------------------------------------------------------------|

E-9-5-4-4h5-5-5h7-7-7/9-9-9-/10-9-|
B---------------------------------|
G---------------------------------|
D---------------------------------|
A---------------------------------|
E---------------------------------|


Tabbed By Curtis Beaudry
Comments