Collective Soul - The World I Know Chords & Tabs

 

The World I Know Chords & Tabs

Collective Soul Chords & Tabs

Version: 3 Type: Bass Tab 0 ratings
1 star 2 stars 3 stars 4 stars 5 stars
comments

The World I Know Bass Tab

   
Tuning:  
First shot at tabbing..... i think im gonna suck....
but iv read other tabs for this song and there wrong... best song ever!

Accoustic plays...                      Verse Riff (repeat 7x)  
G|----------------|--------------|-------------------------------------|
D|--Accoustic-----|--5--4--2--0--|-------------------------------------|
A|----Guitar------|--------------|----------5/7------------------------|
E|----------------|--------------|---5/7----------2-3-3-3-3-3---55-----|
                                  Has our concience shown...
   
Bridge(inbetween both verses, before chorus 1 and between the 2 choruses):
G|---------------------------------------------------------------------------|
D|---------------------------------------------------------------------------|
A|-0-0-0-0-0-0-0-0-0-0-0-0-0-0-0-0-0-----------------------------------------|
E|-----------------------------------3-3-3-3-3-3-3-3-3-3-3-3-3-3-------------|
I drink myself on newfound pity...     OR
All the words that ive been reading...


Chorus1:
G|---------------------------------------------------------------------------|
D|---------------------------------------------------------------------------|
A|-5-5-5-5-5-5-5-5-5----------------------------------5-5-5-5-5-5--5-5-5-5-5-|
E|-------------------5-5-5-5-5-5-5-5-3-3-3-3-3-3-3-3-------------------------|
  So I Walk upon high...


G|-------------------------------------------|
D|-------------------------------------------|
A|-5-5-5-5-5-5-------------------3-3-3-3-3-3-|
E|-------------5-5-5-5-5-5-5-5-5-------------|
[ Tab from: http://www.guitartabs.cc/tabs/c/collective_soul/the_world_i_know_btab_ver_3.html ]
Chorus 2
G|---------------------------------------------------------------------------|
D|---------------------------------------------------------------------------|
A|-5-5-5-5-5-5-5-5-5----------------------------------5-5-5-5-5-5--5-5-5-5-5-|
E|-------------------5-5-5-5-5-5-5-5-3-3-3-3-3-3-3-3-------------------------|
  So I Walk upon high...


G|---------------------------------------------------------------------------|
D|---------------------------------------------------------------------------|
A|-5-5-5-5-5-5-------------------3-3-3-3-3-3--5-5-5-5-5-5-5-5-5--------------|
E|-------------5-5-5-5-5-5-5-5-5--------------------------------5-5-5-5-5-5-5|
                                              Yeah i walk upon high...

G|---------------------------------------------------------------------------|
D|---------------------------------------------------------------------------|
A|-----------------------5-5-5-5-5-5-5-5-5--5-5-5-5-5-5-5-5-5----------------|
E|-5-5-3-3-3-3-3-3-3-3-3--------------------------------------5-5-5-5-5-5-5-5|


G|-------------------|
D|-------------------|
A|-3-3-3-3-3-3-3-3-3-|
E|-------------------|

Outro(with violin):
G|--------------------------|
D|--------------------------|
A|---5--5--5----------------|
E|----------5-3--3--3--3--3-|
                          ^let ring the last time you play it


song structure
Bass intro thinger- 1x
Verse riff- 6x
Bridge- 1x
Verse riff- 6x
Bridge- 1x
Chorus1- 1x
Verse Riff- 4x
Bridge- 1x
Chorus 2- 1x
Outro- 4x

Key:
/  slide up

MY NAME IS LENNY!... no its really tom... rate.... correct... or email me at
Rangersin2004@aol.com
Comments