Collective Soul - Smashing Young Man Chords & Tabs

 

Smashing Young Man Chords & Tabs

Collective Soul Chords & Tabs

Version: 1 Type: Bass Tab 0 ratings
1 star 2 stars 3 stars 4 stars 5 stars
comments

Smashing Young Man Bass Tab

   
Here's a nice little Bass tab for Smashing Young Man by Collective Soul.

Jason Dubsky
Smashing Young Man - by Collective Soul
>From their album - Collective Soul
Tabbed by: Jason Dubsky
jdubsky@total.net

Here's a bass tab for the sone Smashing Young Man by Collective Soul.
It's pretty acturate, and you can jazz it up as much as you want!

-----------------------------------------------------------------------------
Riff 1 (Hey, I hope you're...)

    e  q  e  e  e  e     e  q  e  e  e  e                                       
G---------------------|--------------------|
D---------3--1--0-----|--------1--0--1--3--|
A------------------3--|--------------------|
E---1--1--------------|--1--1--------------|
                                                                                

Riff 2 (Main song)

    s  s  e  e  q  s  s  s  e  e     s  s  e  e  q  s  s  s  e  e               
G---------------------------------|--------------------------------|
D---------------------------------|--------------------------------|
A------1--1--1--1-----1-----3--1--|-----1--1--1--1-----1-----3--1--|
E---3--------------3-----3--------|--3--------------3-----3--------|
                                                                                

Chorus (Help me I plea...)
[ Tab from: http://www.guitartabs.cc/tabs/c/collective_soul/smashing_young_man_btab.html ]
       e  e  q  e  e  e     e  e  q  e  e  e    e  e  q  e  e  e                
G---|--------3-----------|-------------------|--------------------|
D---|-----------3--1--0--|--------3----------|--------6-----------|
A---|--1--1--------------|-------------------|--------------------|
E---|--------------------|--1--1-----1--3--1/|--4--4-----4--3--1--|
                                                                                

    e  e  e  e  e  e  e  e                                                      
G---------------------------|
D---1--1--1--1--1--1--1--1--|
A---------------------------|
E---------------------------|
                                                                            

Bridge (I don't recall asking...)

       w     w     w     h  x q  q     w     w     w                            
G---|-----|-----|-----|-------------|-----|-----|-----|
D---|-----|-----|-----|-------------|-----|-----|--1--|
A---|-----|--3--|-----|-----4/5--3--|-----|--3--|-----|
E---|--3--|-----|--3--|--1----------|--3--|-----|-----|
                                                                            

Guitar Solo

       e  e  q  e  t  e  s     e  e  q  e  t  e  s                              
G---|--------3--------------|-----------------------|
D---|-----------------------|--------3--------------|
A---|--1--1-----1--1--1--1--|-----------------------|
E---|-----------------------|--1--1-----1--1--1--1--|
                                                                                

    e  e  q  e  t  e  s     e  e  q  e  e  e  e                                 
G------------------------|--------8--------------|
D---------6--------------|-----------------------|
A------------------------|--6--6-----6--6--6--6--|
E---4--4-----4--4--4--4--|-----------------------|
                                                                            
-----------------------------------------------------------------------------
Song

Riff 1
Riff 2 X3
Riff 1
Riff 2
Riff 1
Chorus X2
Riff 2 X4
Riff 1
Riff 2
Riff 1
Chorus X2
Bridge
Guitar Solo
Chorus X4
Riff 2 X2

AND THAT'S THE SONG!
Comments