Collective Soul - Shine Chords & Tabs

 

Shine Chords & Tabs

Collective Soul Chords & Tabs

Version: 5 Type: Tab 0 ratings
1 star 2 stars 3 stars 4 stars 5 stars
comments

Shine Tab

   
Shine by Collective Soul
TAB by Aaron Prescott

This song was relatively easy once you forget about the solo.
Speaking of which, the solo is on a Db (major? pentatonic?) scale.  Just improvise it.  
I might TAB it out if I feel like it . . .
In the Guitar 2 part in the solo, the "x" numbers refer to the number of bars you play the chord.
And for those of you who don't know, the "D.C." means "go back to the beginning"
I think this TAB is pretty much correct. Good luck and have fun!  I'm kind of bored of this song now.

Key to TAB symbols:
/     Slide Up
\     Slide Down
^     Bend/Release
x     Muted Note
P.M.  Palm Mute

Guitar 1 (Light Distortion):            Drop D down 1/2 step (Db, Ab, Db, Gb, Bb, Eb)
Guitar 2 (Distortion):                  Drop D down 1/2 step (Db, Ab, Db, Gb, Bb, Eb)
Guitar 3 (Lightly Distorted, Chorused): Drop D down 1/2 step (Db, Ab, Db, Gb, Bb, Eb)

INTRO:
   Guitar 1
Eb|-------------------------|-------------------------|-------------------------|-------------------------|
Bb|-------------------------|-------------------------|-------------------------|-------------------------|
Gb|-9-/11-11-11-11-------9--|\7--7--7-----7-----7-----|-9-/11-11-11-11---/14-14-|\7-----7-----9-----11----|
Db|-0-----0--0--0-----0--0--|-0--0--0--0--0-----0--0--|-0-----0--0--0-----0--0--|-0--0--0--0--0--0--0--0--|
Ab|-------------------------|-------------------------|-------------------------|-------------------------|
Db|-------------------------|-------------------------|-------------------------|-------------------------|
          P.M. |                      P.M.                    P.M. |

   Guitars 1 & 2
Eb|-------------------------|-------------------------|-------------------------|-------------------------|
Bb|-------------------------|-------------------------|-------------------------|-------------------------|
Gb|-------------------------|-------------------------|-12----------12-------12-|----12-------12----12----|
Db|-10----0--0--10----0--10-|-0--10-0--0--10-0--10-0--|-12----0--0--12----0--12-|-0--12-0--0--12-0--12-0--|
Ab|-10----0--0--10----0--10-|-0--10-0--0--10-0--10-0--|-10----0--0--10----0--10-|-0--10-0--0--10-0--10-0--|
Db|-10----------10-------10-|----10-------10----10----|-------------------------|-------------------------|

VERSES 1 & 2:
   Guitar 1
Eb||--------------------------|-------------------------|-------------------------|-------------------------|
Bb||--------------------------|-------------------------|-------------------------|-------------------------|
Gb||o-9-/11-11-11-11-------9--|\7--7--7-----7-----7-----|-9-/11-11-11-11---/14-14-|\7-----7-----9-----11----|
Db||o-0-----0--0--0-----0--0--|-0--0--0--0--0-----0--0--|-0-----0--0--0-----0--0--|-0--0--0--0--0--0--0--0--|
Ab||--------------------------|-------------------------|-------------------------|-------------------------|
Db||--------------------------|-------------------------|-------------------------|-------------------------|
          P.M. |                      P.M.                    P.M. |

   Guitars 1 & 2
Eb|-------------------------|-------------------------|-------------------------|--------------------------||
Bb|-------------------------|-------------------------|-------------------------|--------------------------||
Gb|-------------------------|-------------------------|-12----------12-------12-|----12-------12----12----o||
Db|-10----0--0--10----0--10-|-0--10-0--0--10-0--10-0--|-12----0--0--12----0--12-|-0--12-0--0--12-0--12-0--o||
Ab|-10----0--0--10----0--10-|-0--10-0--0--10-0--10-0--|-10----0--0--10----0--10-|-0--10-0--0--10-0--10-0---||
Db|-10----------10-------10-|----10-------10----10----|-------------------------|--------------------------||

PRECHORUS:
    Guitar 2
Eb||--------------------------|-------------------------|-------------------------|--------------------------||
Bb||--------------------------|-------------------------|-------------------------|--------------------------||
Gb||o-------------------------|-------------------------|-------------------------|-------------------------o||
Db||o-0-----0--0--3--0--0--3--|-0--0--3--0--5-----------|-0-----0--0--3--0--0--3--|-0--0--3--0--5-----6-----o||
Ab||--0-----0--0--3--0--0--3--|-0--0--3--0--5-----------|-0-----0--0--3--0--0--3--|-0--0--3--0--5-----6------||
Db||--0-----0--0--3--0--0--3--|-0--0--3--0--5-----------|-0-----0--0--3--0--0--3--|-0--0--3--0--5-----6------||

REFRAIN:
      Guitar 3                       hold bend                                                             D.C.
|-Eb||--------------------------|-------------------------|-------------------------|-------------5------------||
| Bb||------------------------7-|[7]^8-------^7-----------|-------------------------|-7------------------------||
| Gb||o-------------------------|-------------------------|-------------------------|-------------------------o||
| Db||o-------------------------|-------------------------|-------------------------|-------------------------o||
| Ab||--------------------------|-------------------------|-------------------------|--------------------------||
| Db||--------------------------|-------------------------|-------------------------|--------------------------||
|                                                                                                      (Play 4x)
|     Guitar 2
| Eb||--------------------------|-------------------------|-------------------------|--------------------------||
| Bb||--------------------------|-------------------------|-------------------------|--------------------------||
| Gb||o-------------------------|-------------------------|-------------------------|-------------------------o||
| Db||o-10----------------------|-5-----------------------|-0-----------------------|-0-----------------------o||
| Ab||--10----------------------|-5-----------------------|-0-----------------------|-0------------------------||
|-Db||--10----------------------|-5-----------------------|-0-----------------------|-0------------------------||
        *                                                                                              (Play 4x)
* There is a strumming rhythm here, but I'll leave that to you to figure out

INTERLUDE:
   Guitar 1
Eb|-------------------------|-------------------------|-------------------------|-------------------------|
Bb|-------------------------|-------------------------|-------------------------|-------------------------|
Gb|-9-/11-11-11-11-------9--|\7--7--7-----7-----7-----|-9-/11-11-11-11---/14-14-|\7-----7-----9-----11----|
Db|-0-----0--0--0-----0--0--|-0--0--0--0--0-----0--0--|-0-----0--0--0-----0--0--|-0--0--0--0--0--0--0--0--|
Ab|-------------------------|-------------------------|-------------------------|-------------------------|
Db|-------------------------|-------------------------|-------------------------|-------------------------|
          P.M. |                      P.M.                    P.M. |

   Guitars 1 & 2
Eb|-------------------------|-------------------------|-------------------------|-------------------------|
Bb|-------------------------|-------------------------|-------------------------|-------------------------|
Gb|-------------------------|-------------------------|-12----------12-------12-|----12-------12----12----|
Db|-10----0--0--10----0--10-|-0--10-0--0--10-0--10-0--|-12----0--0--12----0--12-|-0--12-0--0--12-0--12-0--|
Ab|-10----0--0--10----0--10-|-0--10-0--0--10-0--10-0--|-10----0--0--10----0--10-|-0--10-0--0--10-0--10-0--|
Db|-10----------10-------10-|----10-------10----10----|-------------------------|-------------------------|

GUITAR SOLO:
Guitar 1 - 16-Bar Solo (Db Major)

   Guitar 2
Eb|----|   |----|   |----|   |----|   |----|   |----|
Bb|----|   |----|   |----|   |----|   |----|   |----| 
Gb|----|   |----|   |----|   |----|   |----|   |----|
Db|-0--|x4 |-10-|x2 |-5--|x2 |-0--|x4 |-10-|x2 |-5--|x2
Ab|-0--|   |-10-|   |-5--|   |-0--|   |-10-|   |-5--|
Db|-0--|   |-10-|   |-5--|   |-0--|   |-10-|   |-5--|
[ Tab from: http://www.guitartabs.cc/tabs/c/collective_soul/shine_tab_ver_5.html ]
INTERLUDE:
   Guitar 1
Eb|-------------------------|-------------------------|-------------------------|-------------------------|
Bb|-------------------------|-------------------------|-------------------------|-------------------------|
Gb|-9-/11-11-11-11-------9--|\7--7--7-----7-----7-----|-9-/11-11-11-11---/14-14-|\7-----7-----9-----11----|
Db|-0-----0--0--0-----0--0--|-0--0--0--0--0-----0--0--|-0-----0--0--0-----0--0--|-0--0--0--0--0--0--0--0--|
Ab|-------------------------|-------------------------|-------------------------|-------------------------|
Db|-------------------------|-------------------------|-------------------------|-------------------------|
          P.M. |                      P.M.                    P.M. |

   Guitars 1 & 2
Eb|-------------------------|-------------------------|-------------------------|-------------------------|
Bb|-------------------------|-------------------------|-------------------------|-------------------------|
Gb|-------------------------|-------------------------|-12----------12-------12-|----12-------12----12----|
Db|-10----0--0--10----0--10-|-0--10-0--0--10-0--10-0--|-12----0--0--12----0--12-|-0--12-0--0--12-0--12-0--|
Ab|-10----0--0--10----0--10-|-0--10-0--0--10-0--10-0--|-10----0--0--10----0--10-|-0--10-0--0--10-0--10-0--|
Db|-10----------10-------10-|----10-------10----10----|-------------------------|-------------------------|

VERSE 3:
   Guitar 1
Eb||--------------------------|-------------------------|-------------------------|-------------------------|
Bb||--------------------------|-------------------------|-------------------------|-------------------------|
Gb||o-9-/11-11-11-11-------9--|\7--7--7-----7-----7-----|-9-/11-11-11-11---/14-14-|\7-----7-----9-----11----|
Db||o-0-----0--0--0-----0--0--|-0--0--0--0--0-----0--0--|-0-----0--0--0-----0--0--|-0--0--0--0--0--0--0--0--|
Ab||--------------------------|-------------------------|-------------------------|-------------------------|
Db||--------------------------|-------------------------|-------------------------|-------------------------|
          P.M. |                      P.M.                    P.M. |

   Guitars 1 & 2
Eb|-------------------------|-------------------------|-------------------------|--------------------------||
Bb|-------------------------|-------------------------|-------------------------|--------------------------||
Gb|-------------------------|-------------------------|-12----------12-------12-|----12-------12----12----o||
Db|-10----0--0--10----0--10-|-0--10-0--0--10-0--10-0--|-12----0--0--12----0--12-|-0--12-0--0--12-0--12-0--o||
Ab|-10----0--0--10----0--10-|-0--10-0--0--10-0--10-0--|-10----0--0--10----0--10-|-0--10-0--0--10-0--10-0---||
Db|-10----------10-------10-|----10-------10----10----|-------------------------|--------------------------||

PRECHORUS:
    Guitar 2
Eb||--------------------------|-------------------------|-------------------------|--------------------------||
Bb||--------------------------|-------------------------|-------------------------|--------------------------||
Gb||o-------------------------|-------------------------|-------------------------|-------------------------o||
Db||o-0-----0--0--3--0--0--3--|-0--0--3--0--5-----------|-0-----0--0--3--0--0--3--|-0--0--3--0--5-----6-----o||
Ab||--0-----0--0--3--0--0--3--|-0--0--3--0--5-----------|-0-----0--0--3--0--0--3--|-0--0--3--0--5-----6------||
Db||--0-----0--0--3--0--0--3--|-0--0--3--0--5-----------|-0-----0--0--3--0--0--3--|-0--0--3--0--5-----6------||

REFRAIN:
      Guitar 3                       hold bend                                                             D.C.
|-Eb||--------------------------|-------------------------|-------------------------|-------------5------------||
| Bb||------------------------7-|[7]^8-------^7-----------|-------------------------|-7------------------------||
| Gb||o-------------------------|-------------------------|-------------------------|-------------------------o||
| Db||o-------------------------|-------------------------|-------------------------|-------------------------o||
| Ab||--------------------------|-------------------------|-------------------------|--------------------------||
| Db||--------------------------|-------------------------|-------------------------|--------------------------||
|                                                                                                      (Play 4x)
|     Guitar 2
| Eb||--------------------------|-------------------------|-------------------------|--------------------------||
| Bb||--------------------------|-------------------------|-------------------------|--------------------------||
| Gb||o-------------------------|-------------------------|-------------------------|-------------------------o||
| Db||o-10----------------------|-5-----------------------|-0-----------------------|-0-----------------------o||
| Ab||--10----------------------|-5-----------------------|-0-----------------------|-0------------------------||
|-Db||--10----------------------|-5-----------------------|-0-----------------------|-0------------------------||
        *                                                                                              (Play 4x)
OUTRO:
   Double Time Feel
   Guitar 2
Eb|-------------------------|-------------------------|-------------------------|-------------------------|
Bb|-------------------------|-------------------------|-------------------------|-------------------------|
Gb|-------------------------|-------------------------|-------------------------|-------------------------|
Db|-10----------------------|-5-----------------------|-0-----------------------|-0-----------------------|
Ab|-10----------------------|-5-----------------------|-0-----------------------|-0-----------------------|
Db|-10----------------------|-5-----------------------|-0-----------------------|-0-----------------------|
    *
     Guitar ?**
|-Eb|-------------------------|-------------------------|-------------------------|-------------------------|
| Bb|-------------------------|-------------------------|-------------------------|-------------------------|
| Gb|-------------------------|-------------------------|-------x-----x-----x--x--|----x-----x-----x--x-----|
| Db|-------------------------|-------------------------|-------x-----x-----x--x--|----x-----x-----x--x-----|
| Ab|-------------------------|-------------------------|-------------------------|-------------------------|
| Db|-------------------------|-------------------------|-------------------------|-------------------------|
|
|    Guitar 2
| Eb|-------------------------|-------------------------|-------------------------|-------------------------|
| Bb|-------------------------|-------------------------|-------------------------|-------------------------|
| Gb|-------------------------|-------------------------|-------------------------|-------------------------|
| Db|-10----------------------|-5-----------------------|-0-----------------------|-0-----------------------|
| Ab|-10----------------------|-5-----------------------|-0-----------------------|-0-----------------------|
|-Db|-10----------------------|-5-----------------------|-0-----------------------|-0-----------------------|
      *

** I have no idea what this is.  It could be a guitar or an effect, but here is the rhythm.  
   I'm sure you can come up with something . . .

   Guitar 2
Eb|-------------------------|-------------------------|-------------------------|-------------------------|
Bb|-------------------------|-------------------------|-------------------------|-------------------------|
Gb|-------------------------|-------------------------|-------------------------|-------------------------|
Db|-10----------------------|-5-----------------------|-0-----------------------|-0-----------------------|
Ab|-10----------------------|-5-----------------------|-0-----------------------|-0-----------------------|
Db|-10----------------------|-5-----------------------|-0-----------------------|-0-----------------------|
    *

Eb|-------------------------|-------------------------|
Bb|-------------------------|-------------------------|
Gb|-------------------------|-------------------------|
Db|-10----------------------|-5-----------------------|
Ab|-10----------------------|-5-----------------------|
Db|-10----------------------|-5-----------------------|
    *

    End Double Time Feel
    Guitar 2
Eb||--------------------------|-------------------------|-------------------------|--------------------------||
Bb||--------------------------|-------------------------|-------------------------|--------------------------||
Gb||o-------------------------|-------------------------|-------------------------|-------------------------o||
Db||o-0-----0--0--3--0--0--3--|-0--0--3--0--5-----------|-0-----0--0--3--0--0--3--|-0--0--3--0--5-----6-----o||
Ab||--0-----0--0--3--0--0--3--|-0--0--3--0--5-----------|-0-----0--0--3--0--0--3--|-0--0--3--0--5-----6------||
Db||--0-----0--0--3--0--0--3--|-0--0--3--0--5-----------|-0-----0--0--3--0--0--3--|-0--0--3--0--5-----6------||
Comments