Collective Soul - Shine Chords & Tabs

 

Shine Chords & Tabs

Collective Soul Chords & Tabs

Version: 2 Type: Tab 0 ratings
1 star 2 stars 3 stars 4 stars 5 stars
comments

Shine Tab

   
Title: Shine
Collective Soul
Album: Hints Allegations and Things Left Unsaid
Tabbed by: David Db Ab Db Gb Bb Eb

  (palm muted)
[----------------------------------------------------------]
[----------------------------------------------------------]
[-9h11-----11--9-7-7p0h7---9h11-----11--14--7--7p0-9--11---]
[-0----0-0-0-0-0-0-0---0-0-0----0-0-0---0-0-0-00--00--0----]
[----------------------------------------------------------]
[----------------------------------------------------------]
 ^ means you can play the octave at the 17th fret
[----------------------------------------------------------]
[----------------------------------------------------------]
[----------------------------------------------------------]
[-10--0-0-10--0-10-0-10-0-0-10-0-10-0--5--0-0-5--0-5-0-5-0-]
[-10--0-0-10--0-10-0-10-0-0-10-0-10-0--5--0-0-5--0-5-0-5-0-]
[-10--0-0-10--0-10-0-10-0-0-10-0-10-0--5--0-0-5--0-5-0-5-0-]
                                       ^      ^    ^   ^
[----------] i play it at the 17th
[----------]
[----------]
[-0-5-0-5--]Verse
[-0-5-0-5--]
[-0-5-0-5--]
    ^   ^
[-------------------------------------------------------]
[-------------------------------------------------------]
[-------------------------------------------------------]
[-0--0-0-3-0-0-3-0-0-3-0-5--0--0-0-3-0-0-3-0-0-3-0-5-6--]
[-0--0-0-3-0-0-3-0-0-3-0-5--0--0-0-3-0-0-3-0-0-3-0-5-6--]
[-0--0-0-3-0-0-3-0-0-3-0-5--0--0-0-3-0-0-3-0-0-3-0-5-6--]
            Pre Chorus ^
[---------------------------------------------]
[---------------------------------------------]
[---------------------------------------0-0---]
[-10--10-10/--5--5-5/--0-0-0-0----------0-0---]
[-10--10-10/--5--5-5/--0-0-0-0--0--0-0--0-0---]
[-10--10-10/--5--5-5/--0-0-0-0--0--0-0--0-0---]
 guitar 1^   Chorus ^

[---------------------------------------------]
[---------------------------------------------]
[-------------11b----------------11b---14b----]
[-------------------------------0-------------]
[---------------------------------------------]
[---------------------------------------------]
 guitar 2^    w/  wah wah
[ Tab from: http://www.guitartabs.cc/tabs/c/collective_soul/shine_tab_ver_2.html ]
( )  <--is optional       w/distortion
[----------------------------------------------------]
[------(10)(10)-----(10)(10)-----(10)--12-10---12-10-]
[-------10--10-------10--10-------10---12-10---12-10-]
[--10h12--12----10h12--12----10h12--12-------12------]
[----------------------------------------------------]
[----------------------------------------------------]

[----------------------------------------------------]
[---12-10---12-10------------------------------------]
[---12-10---12-10-12---------------------------------]
[-12------12------12------------------------10-------]
[--------------------------10---10h12p10h12---12-----]
[---------------------10h13--12----------------------]

[-----------------------------------------------10---10--]
[------------------------------10---10h13p10h13----13----]
[-------------10---10h12p10h12---12----------------------]
[-10h12p10h12---12---------------------------------------]
[--------------------------------------------------------]
[--------------------------------------------------------]

[--------------------------------------------------------]
[--------------------------------------------------------]
 (SPEED UP TEMPO)
[-------------------------------------------------------]
[-------------------------------------------------------]
[-------------------------------------------------------]
[-10-10-10-10-10-10-10-10/-5-5-5-5-5-5-5-5/-0-0-0-0-0-0-]
[-10-10-10-10-10-10-10-10/-5-5-5-5-5-5-5-5/-0-0-0-0-0-0-]
[-10-10-10-10-10-10-10-10/-5-5-5-5-5-5-5-5/-0-0-0-0-0-0-]

[----------------------]
[----------------------]
[----------------------]
[-0-0-0-0-0-0-0-0-0-0--]Bridge I
[-0-0-0-0-0-0-0-0-0-0--]
[-0-0-0-0-0-0-0-0-0-0--]

[--------------------------------------------]
[--------------------------------------------]
[--------------------------------------------]
[-10-10-10-10-10-10-10-10/-5-5-5-5-5-5-5-5/--]
[-10-10-10-10-10-10-10-10/-5-5-5-5-5-5-5-5/--]
[-10-10-10-10-10-10-10-10/-5-5-5-5-5-5-5-5/--]

(SEQUENCE)
Verse X 3
Pre Chorus X 2
Chorus X 4
Verse X 3
Pre Chorus X 2
Chorus X 4
Verse X 1
SOLO  (I'll tab it seperate)SORRY ITS NOT FINISHED I'LL
FINISH IT LATER
Verse X 3
Pre Chorus X 2
Chorus X 4
Bridge I X 2
Bridge II X 1
Pre Chorus X 2
Comments