Collective Soul - Shine Chords & Tabs

 

Shine Chords & Tabs

Collective Soul Chords & Tabs

Version: 4 Type: Bass Tab

Shine Bass Tab

   
shine
collective soul
dropped D

intro/verses
|----------------|---------|---------------|
|----------------|---------|---------------|
|----------------|--3--3-3-|-10--10-10-----|
|-0--0-0--0--0-0-|---------|---------------|
[ Tab from: http://www.guitartabs.cc/tabs/c/collective_soul/shine_btab_ver_4.html ]
pre-cho: ass kicking part!
|----------------------|----------------------------|
|----------------------|----------------------------|
|----------------------|----------------------------|
|-0--3p0--3p0--3p0--5--|---0--3p0--3p0--3p0--5--6---|

chorus
|-----|-----|----------|
|-----|-----|----------|
|-0-0-|-----|----------|
|-----|-5-5-|-0--0-0---|

kayo na bahala sa sequence!