Collective Soul - Shine Chords & Tabs

 

Shine Chords & Tabs

Collective Soul Chords & Tabs

Version: 1 Type: Bass Tab 0 ratings
1 star 2 stars 3 stars 4 stars 5 stars
comments

Shine Bass Tab

Song Title: Shine(corrected version with rhythm)
Artist: Collective Soul
----------------------------------------------

COLLECTIVE SOUL - "Shine" - Bass Tab

Verse:
|----------|---------|---------|----------|
|*---------|---------|---------|-4-------*|
|*-4-------|-4-------|-2-------|---------*|(x3)
|----------|---------|---------|----------|
   1 2 3 4   1 2 3 4   1 2 3 4   1 2 3 4

Chorus:
|----------------|------------------|
|*---------------|-----------------*|
|*-4-4-4-4-4-4-2-|-4-4-4-4-4-4-2---*|(x2)
|----------------|---------------2--|
   1 & 2 & 3 & 4   1 & 2 & 3 & 4 &

|----------|---------|
|*---------|--------*|
|*-2-------|-4------*|(x4)
|------2---|---------|
   1 2 3 4   1 2 3 4

Verse(x3)
Chorus(x1)
Verse(x1)
[ Tab from: http://www.guitartabs.cc/tabs/c/collective_soul/shine_btab.html ]
Guitar Solo:
|----------|---------|---------|----------|
|*---------|---------|---------|---------*|
|*-4-4-4-4-|-4-4-4-4-|-2-2-2-2-|---------*|(x2)
|----------|---------|---------|-2-2-2-2--|

Verse(x3)
Chorus(x1)

'I'm gonna let it shine...' Chorus:
|------------------|-----------------|-----------------|
|*-----------------|-----------------|-----------------|
|*-2-2-2-2-2-2-2-2-|-----------------|-4-4-4-4-4-4-4-4-|
|------------------|-2-2-2-2-2-2-2-2-|-----------------|
   1 & 2 & 3 & 4 &   1 & 2 & 3 & 4 &   1 & 2 & 3 & 4 &

|------------------|
|-----------------*|
|-4-4-4-4-4-4-4-4-*|(x3)
|------------------|
  1 & 2 & 3 & 4 &

|-----------------|-----------------|
|-----------------|-----------------|
|-2-2-2-2-2-2-2-2-|-----------------|
|-----------------|-2-2-2-2-2-2-2-2-|
  1 & 2 & 3 & 4 &   1 & 2 & 3 & 4 &  


End:
|----------------|-----------------|
|*---------------|-----------------|
|*-4-4-4-4-4-4-2-|-4-4-4-4-4-4-2---|(x2)
|----------------|---------------2-|
   1 & 2 & 3 & 4   1 & 2 & 3 & 4 &   
  

Submitted by:  Johari Taylor (viking@powerup.com.au)

Comments